» » »

Older Chests Tabs (ver.3)

Artists:  A B C D E F G H I J K L M N O P Q R S T U V W X Y Z # 

Older Chests Tabs (ver.3)

Damien Rice
Rating:
0/5 (0 votes)

Hard to play? Try these video lessons and learn fast.
                Damien Rice - Older Chests

Part 1 used for verses

                                                           HammerD0-2-3  
e|------------------|------------------|------------------|------------------|
B|---1--1----1--1---|---1--1----1--1---|---1--1----1--1--1|--1--1--1--1--1--1|
G|--0--0--0-0--0-0-0|--0--0--0-0--0--0-|--2--2--0-0--0--0-|-0--0--0--0--0--0-|
D|----2-----------0-|----2----------0--|----2-------------|2--3--3--3--3-----|
A|3-----------------|3-----------------|0------0----2--3--|------------------|
E|-------0-1--3-----|-------0-1--3-----|------------------|---------------3--|


Part 2 used for  chorus from 'like time' on



e|----0-------------|----0-------------|----0-------------|------------------|
B|---1-1-----1--1---|---1-1-----1--1---|---1-1---1--1-----|--1--1--1--1--1--1|
G|--0---0--0---0--0-|--0---0--0---0--0-|--2---2-0--0------|-0--0--0--0--0--0-|
D|---------------0--|---------------0--|------------------|2--3--3--3--3-----|
A|3-----------------|3-----------------|0------2--3-------|------------------|
E|--------1—--3-----|--------1—--3-----|------------------|---------------3--|


Older Chests - Damien Rice

Older chests reveal themselves
Like a crack in the wall
Starting small
An grow in time

We all seem to need the help
Of someone else
To mend that shelf 
of too many books

Read me your favourite line

Papa went to other lands
And he found someone  who understands
The ticking an' the western man's
Need to cry

He came back the other day

Chorus
Yer you know
Some things in life may change
And some things stay the same ...
Like time
There's always time
On my mind
So pass me by 
I'll be fine 
Just give me time

Older gents sit on the fence
With a cap in hand 
Looking grand
They watch their city change




And children scream or so it seems
Louder than before
Outta' doors into stores
With bigger Names

Mama tried to wash their faces
But these kids they lost their graces
And Daddy lost at the races
Too many times
She broke down the other day 

Yer you know
Some things in life may change
And some things stay the same ...
Like time
There's always time
On my mind
So pass me by 
I'll be fine 
Just give me time

Hope you enjoy it - I've posted chord versions before but this is my first TAB - the
phrasing of the song is more difficult than the playing - it takes a while to get it
right. Good Luck
Rob
            
Hard to play? Try these video lessons and learn fast. | Correct




comments powered by Disqus
↑ Back to top | Tablatures and chords are parodies/interpretations of the original songs. You may use it for private study, scholarship, research or language learning purposes only