» » »

Eskimo Tabs (ver.2)

Artists:  A B C D E F G H I J K L M N O P Q R S T U V W X Y Z # 

Eskimo Tabs (ver.2)

Damien Rice
Rating:
0/5 (0 votes)

Hard to play? Try these video lessons and learn fast.
                
---------------------------CAPO: 5th Fret----------------------------

INTRO:

   D U D U D U etc.         (D= downstroke, U= upstroke)
e|---0---0---0---0---0---0|---0---0---0---0---0---0|
B|---0---0---0---0---0---0|---0---0---0---0---0---0|
G|-0-0-0-0-0-0-0-0-0-0-0-0|-0-0-0-0-0-0-0-0-0-0-0-0|
D|-2-0-2-0-2-0-4-0-4-0-4-0|-2-0-2-0-2-0-2-0-2-4-4-0|
A|-2---2---2---5---5---5-3|-3---3---3---3---3-5-5--|
E|-0---0---0---0---0---0--|-0---0---0---0---0-0-0--|

e|---0---0---0---0---0---0|---0---0---0---0---0-----0|
B|---0---0---0---0---0---0|---0---0---0---0---0-----0|
G|-0-0-0-0-0-0-0-0-0-0-0-0|-0-0-0-0-0-0-0-0-0-0-0---0|
D|-2-0-2-0-2-0-4-0-4-0-4-0|-2-0-2-0-2-0-2-0-2-0-2/4-0|
A|-2---2---2---5---5---5-3|-3---3---3---3---3---3/5--|
E|-0---0---0---0---0---0--|-0---0---0---0---0---0----|

e|---0---0---0---0---0---0|---0---0---0---0---0---0|
B|---0---0---0---0---0---0|---0---0---0---0---0---0|
G|-0-0-0-0-0-0-0-0-0-0-0-0|-0-0-0-0-0-0-0-0-0-0-0-0|
D|-2-0-2-0-2-0-4-0-4-0-4-0|-2-0-2-0-2-0-2-0-2-0-2-0|
A|-2---2---2---5---5---5-3|-3---3---3---3---3---3--|
E|-0---0---0---0---0---0--|-0---0---0---0---0---0--|

e|-0-0-0-0-0-0-0-0-0-0-0-0|---0---0----5-----------|
B|-1-0-1-0-1-0-1-0-1-0-1-0|-3-0-3-0-3--3-----------|
G|-0-0-0-0-0-0-0-0-0-0-0-0|-0-0-0-0-0--0-----------|
D|-2-2-2-2-2-2-2-2-2-2-2-2|-4---4---4--4-----------|
A|-0---0---0---0---0---0--|-0---0---0--0-----------|
E|------------------------|------------------------|

It practically carries on this for the whole verse, you might have to change it around a little.

CHORUS:

e|------------------------|------3-------------------------|
B|-------3---3---------3--|------3---------------3---------|
G|-------0---0-------2-2-0|-0----2---0-----0-0---0---------| X3
D|-------2p0-0-------0-0-0|-0----0---0-----0-0h2-2-2h0-0---|
A|-2------------0--------0|-2----------2h3-------------0---|
E|-3------------2---------|-0------------------------------|

e|----3---------------|
B|----3----3-3-0------|
G|----0----2-2-0------|
D|---------0-0-0------|
A|--------------------|
E|-3-----2--------0---|


Chords used during opera vocal:

    C  G/B  Am7 F9
e|--3--------0---3---------|
B|--3---3----0---3---------|
G|--0---2----0---0---------|   <--- takes up 2 bars
D|--0---0----2---3---------|
A|--3---0----2---2---------|
E|--2---2----0-------------|



You’ll have to work out the rhythm and improvise by listening to the song  Its taken me ages already

I hope you think its ok.
            
Hard to play? Try these video lessons and learn fast. | Correct




comments powered by Disqus
↑ Back to top | Tablatures and chords are parodies/interpretations of the original songs. You may use it for private study, scholarship, research or language learning purposes only