» » »

Damian Marley, Welcome To Jamrock Tabs (ver.1)

Artists:  A B C D E F G H I J K L M N O P Q R S T U V W X Y Z # 

Welcome To Jamrock Tabs (ver.1)

Damian Marley Tabs
Rating:
4/5 (3 votes)
Welcome To Jamrock lessons Tabs too difficult? Try these video lessons and learn fast
                This is my first tab, ever. There is a chorus/delay effect used on the first chord. 
to the song to get everything perfect.

Intro (0:01)

   Gm
E|--3~--||
B|--3~--||
G|--3~--||    "Out in the streets, they call it murder!"
D|--5~--||
A|------||
E|------||

Verse 1A (0:08-0:43)

     Gm    Dm
E|--3--3--5--5--------------------||
B|--3--3--6--6--x12---------------||
G|--3--3--7--7--------------------||  "Welcome to Jamrock, camp..."
D|--------------------------------||
A|--------------------------------||
E|--------------------------------||


Verse 1B(0:57-1:06)

E|--3--3--5--5------3~---||
B|--3--3--6--6--x3--3~---||
G|--3--3--7--7------3~---||  "Some say them a playboy, (them) a..."
D|-----------------------||
A|-----------------------||
E|-----------------------||

Chorus (1:10-1:22)

E|--3--3--5--5------||
B|--3--3--6--6--x4--||
G|--3--3--7--7------||  "Welcome to Jamrock, welcome to jamrock..."
D|------------------||
A|------------------||
E|------------------||

Verse 2A (1:35-1:48)

E|--3--3--5--5------3--||
B|--3--3--6--6--x4--3--||
G|--3--3--7--7------3--||  "Old man to Pickney, so wave one hand..."
D|---------------------||
A|---------------------||
E|---------------------||

Verse 2 Insert (1:50, 1:54)

E|--3--||
B|--3--||
G|--3--||
D|-----||
A|-----||
E|-----||

Verse 2B (1:57-1:59

E|--3--3--5--5--||
B|--3--3--6--6--||
G|--3--3--7--7--||  "Then them don't stand a chance at all..."
D|--------------||
A|--------------||
E|--------------||

Verse 2C (2:12-2:24)

E|--3-----5------||
B|--3-----6--x4--||
G|--3-----7------||  "Then will full you up a current like a..."
D|---------------||
A|---------------||
E|---------------||

Chorus/Outro (2:25-3:01)

E|--3--3--5--5-------3--||
B|--3--3--6--6--x11--3--||
G|--3--3--7--7-------3--||  "...to Jamrock. Southside, Northside..."
D|----------------------||
A|----------------------||
E|----------------------||

EXTRA - BASS

G|----------------------||
D|----------------------||
A|----------/5----------||  Same riff throughout song...
E|--/6-5-3-----6-5-3----||
            

comments powered by Disqus
↑ Back to top | Damian Marley Tabs for Welcome To Jamrock. Lyrics for acoustic guitar and electric guitar. Tablatures and chords are parodies/interpretations of the original songs. You may use it for private study, scholarship, research or language learning purposes only