» » »

Damian Marley, Pimpa's Paradise Tabs (ver.1)

Artists:  A B C D E F G H I J K L M N O P Q R S T U V W X Y Z # 

Pimpa's Paradise Tabs (ver.1)

Damian Marley Tabs
Rating:
0/5 (0 votes)
Pimpa's Paradise lessons Tabs too difficult? Try these video lessons and learn fast
                Play this to start it off...
e|------------0-------0-------------|
B|--------------1-------1-----------|
G|------2---------2-------2---------|
D|-2h3----3-3-------3---------------|
A|----------------------------------|
E|----------------------------------| 

e|--------0-----0------|---------0-----0-----|
B|-----3-----3-----3---|-----1-----1-----1---|
G|---4---------4-----4-|---2---------2-----2-|
D|-5----5--------------|-3-----3-------------|
A|---------------------|---------------------|
E|---------------------|---------------------|

               Play these quick...   
                  |-| <-----------
e|----------3--3--3-3--|
B|-----3----3--3--3-3--|
G|---4-----------------|
D|-5-----5---5--5------|
A|---------------------|
E|---------------------|
                Then slide back into...
E|---------0-----0-----|--------0-----0------|
B|-----1-----1-----1---|-----3-----3-----3---|
G|---2---------2-----2-|---4---------4-----4-|
D|-3-----3-------------|-5----5--------------|
A|---------------------|---------------------|
E|---------------------|---------------------|

E|---------0-----0-----|----------3--3--3-3--|
B|-----1-----1-----1---|-----3----3--3--3-3--|
G|---2---------2-----2-|---4-----------------|
D|-3-----3-------------|-5-----5---5--5------|
A|---------------------|---------------------|
E|---------------------|---------------------|

Repeat these last four measures and you have the whole song!
            

comments powered by Disqus
↑ Back to top | Damian Marley Tabs for Pimpa's Paradise. Lyrics for acoustic guitar and electric guitar. Tablatures and chords are parodies/interpretations of the original songs. You may use it for private study, scholarship, research or language learning purposes only