» » »

Teachers Bass tabs (ver.1)

Artists:  A B C D E F G H I J K L M N O P Q R S T U V W X Y Z # 

Teachers Bass tabs (ver.1)

Daft Punk
Rating:
0/5 (0 votes)

Tabs too difficult? Try these video lessons and learn fast.
                -------------------------------------------------------------------------------
			     Teachers - Daft Punk
-------------------------------------------------------------------------------

Tuning: Standard

this is the whole song. simple, yet extremely catchy bass line.

enjoi.

G|---------------------------------------------------------------------------|
D|---------------------------------------------------------------------------|
A|-5-5-5\7/3-----------------------------------------------------------------|
E|------------3-3-3\5/7------------------------------------------------------|

end:
G|---------------------------------------------------------------------------|
D|---------------------------------------------------------------------------|
A|-5-5-5\7/3----------5------------------------------------------------------|
E|------------3-3-3\5--------------------------------------------------------|

| /  slide up
| \  slide down
===============================================================================
            
Tabs too difficult? Try these video lessons and learn fast.


comments powered by Disqus
↑ Back to top | Tablatures and chords are parodies/interpretations of the original songs. You may use it for private study, scholarship, research or language learning purposes only