» » »

Random Access Memories Bass tabs (ver.1)

Artists:  A B C D E F G H I J K L M N O P Q R S T U V W X Y Z # 

Random Access Memories Bass tabs (ver.1)

Daft Punk
Rating:
0/5 (0 votes)

Hard to play? Try these video lessons and learn fast.
                out and find out the rhythm for this sweet bass line. Here's the link ;) 


Please check out my other tabs and other videos:D rate comment enjoy ;) AJ

Normal Tuning 
G|
D|
A|
E|

Intro
|------|
|------|
|------|
|-17\\-|

Main riff
|------------------------------------------------------|
|---------------------------------4--------------------|
|----------4-5-5--4-5--4-----------------7---7---7-5-4-| x4
|-7-7-7--7---------------0--2-2-2----2-0---0---0-------|

Verse
|-----------------------|-------------------|----------|
|-----7-----------------|-----7-7/9-7-------|----------|
|-7/9---7-9-5-----------|-7/9---------7/9-7-|-x-7--5-4-| x4
|-------------5-7-5-5-5-|-------------------|----------|

Interlude
|------------------|    |-----------|
|--x-7-8-9-x---7-9-|    |---x-7-8-9-|
|------------9-----| x7 |-----------|
|-7----------------|    |-7---------|

2nd Intro
|------|
|------|
|------|
|-17\\-|

2nd Main riff
|------------------------------------------------------|
|---------------------------------4--------------------|
|----------4-5-5--4-5--4-----------------7---7---7-5-4-| x8
|-7-7-7--7---------------0--2-2-2----2-0---0---0-------|

Bass solo
|------------------------------------------------------|
|---------------------------------4--------------------|
|----------4-5-5--4-5--4-----------------7---7---7-5-4-| x2
|-7-7-7--7---------------0--2-2-2----2-0---0---0-------|

2nd Verse
|-----------------------|-------------------|----------|
|-----7-----------------|-----7-7/9-7-------|----------|
|-7/9---7-9-5-----------|-7/9---------7/9-7-|-x-7--5-4-| x2
|-------------5-7-5-5-5-|-------------------|----------|

|-------14-------------------------|-------14-16-14----------|---------|
|-14/16----14-16-12----------------|-14/16----------14/16-14-|---------|
|-------------------12-14-12-12-12-|-------------------------|-x-7-5-4-| x2
|----------------------------------|-------------------------|---------|

2nd Interlude
|------------------|    |-----------|
|--x-7-8-9-x---7-9-|    |---x-7-8-9-|
|------------9-----| x7 |-----------|
|-7----------------|    |-7---------|

BASS!!!!!!!!!!!!!!!!!!!!!!!!!!!!!!

3rd Main riff
|------------------------------------------------------|
|---------------------------------4--------------------|
|----------4-5-5--4-5--4-----------------7---7---7-5-4-| x8
|-7-7-7--7---------------0--2-2-2----2-0---0---0-------|

Outro
|-------14-------------------------|-------14-16-14----------|
|-14/16----14-16-12----------------|-14/16----------14/16-14-|
|-------------------12-14-12-12-12-|-------------------------| x2
|----------------------------------|-------------------------|

Love peace and chicken grease AJ xoxo
            
Hard to play? Try these video lessons and learn fast. | Correct




comments powered by Disqus
↑ Back to top | Tablatures and chords are parodies/interpretations of the original songs. You may use it for private study, scholarship, research or language learning purposes only