» » »

Instant Crush Bass tabs (ver.5)

Artists:  A B C D E F G H I J K L M N O P Q R S T U V W X Y Z # 

Instant Crush Bass tabs (ver.5)

Daft Punk
Rating:
0/5 (0 votes)

Hard to play? Try these video lessons and learn fast.
                -------------------------------------------------------------------------------
                             Instant Crush - Daft Punk
-------------------------------------------------------------------------------

Tuning: Standard (E-A-D-G)


Intro:
G|---------------------------------------------------------------------------|
D|---------------------------------------------------------------------------|
A|999999999999999-666666666666666-111111111111111----------------------------|
E|------------------------------------------------44444444444444-------------|

Chorus:
G|---------------------------------------------------------------------------|
D|-8----6h8----8-x6-x4~-----4---4-x3-x1~----1---------------x6---------3---3-|
A|------------------------4--4------------1--1---6---------------------------|
E|---x6------6-------------------------------------6-4---4-x---4---0h1----1--|

Verse:
G|---------------------------------------------------------------------------|
D|---------------------------------------------------------------------------|
A|999999999999999-666666666666666-111111111111111----------------------------|
E|------------------------------------------------44444444444444-------------|

Chorus Variations (Towards the end of the song):
G|---------------------------------------------------------------------------|
D|--8---8-----6/8-6-4~-------4-3--1~-----1--------9--6-----------------------|
A|----8---8----------------4-----------11--1----6---------6/88888888---------|
E|-------------------------------------------------------------------8\------|

G|---------------------------------------------------------------------------|
D|--8---8-----6/8-6-4~-------------------------------------------------------|
A|----8---8----------------9-----9-8-6~-----6-----6--------------------------|
E|-----------------------9---9------------6---6-----6-4~-----00h111----------|

G|---------------------------------------------------------------------------|
D|------------------------------------------------9--6-------x6--------------|
A|--1--1------------------9-----9-8-6-----6-----6----------------------------|
E|----1--1---/6-4-2---2/9---9-----------6--6-------------4-x---4-----0h1111--|


| /  slide up
| \  slide down
| h  hammer-on
| p  pull-off
| ~  vibrato
| +  harmonic
| x  Mute note
===============================================================================

Note: There are differents Chorus Variations towards the end, but almost all of 
them with minimal differences.

I hope you can enjoy it.
            
Hard to play? Try these video lessons and learn fast. | Correct




comments powered by Disqus
↑ Back to top | Tablatures and chords are parodies/interpretations of the original songs. You may use it for private study, scholarship, research or language learning purposes only