» » »

1 More Time Bass tabs (ver.1)

Artists:  A B C D E F G H I J K L M N O P Q R S T U V W X Y Z # 

1 More Time Bass tabs (ver.1)

Daft Punk
Rating:
0/5 (0 votes)

Hard to play? Try these video lessons and learn fast.
                G----------------------------------|
D----------------------------------|    Play this 3 times,
A-------------------------5-0------|    then you play:
E----3----3-3----3-3----3----------|

G----------------------------|
D----------------------------|
A----------------------------|
E----2--2--2--2--2--2--2-5---|



G----------------------2---|
D----5-----4-----2---------|
A--------------------------|
E--------------------------|


G--------------------------|
D--------------------------|
A----------------------0---|
E----3-----2-----0---------|
            
Hard to play? Try these video lessons and learn fast. | Correct




comments powered by Disqus
↑ Back to top | Tablatures and chords are parodies/interpretations of the original songs. You may use it for private study, scholarship, research or language learning purposes only