» » »

Dim Tabs (ver.2)

Artists:  A B C D E F G H I J K L M N O P Q R S T U V W X Y Z # 

Dim Tabs (ver.2)

Dada
Rating:
0/5 (0 votes)

Hard to play? Try these video lessons and learn fast.
                Timeing int right just listen to the song first

Standard tuneing

Intro(With gain)
e--------------------------------------0-------0---------|
B-------7-8-7---------7-8-7------------------------------|
G---7-9-------9---7-9-------9-7---4-------2-------2------|
D--------------------------------------------------------|
A--------------------------------------------------------|
E--------------------------------------------------------|

Verse(No gain)
e--------------------------------------------------------|
B-------------------------------------0------------------|
G--------------------------------0-----------------------|
D-----5----5-------4----4------2----2--------------------|
A---5----5---5---5----5---4--3---------------------------|
E--------------------------------------------------------|

Chorus(With gain)
    (G)     (D)      (C)  (C)(C)(C)(C)    (C) (C)(C)
e---3--------2--------0----------------------------------|
B---0--------3--------1----------------------------------|
G---0--------2--------0----------------------------------|
D---0--------0--------2----------------------------------|x2
A---2-----------------3----------------------------------|
E---3----------------------------------------------------|
THEN
   (E)      (D)      (C)  (C)(C)(C)(C)    (C) (C)(C)
e---0----------------------------------------------------|
B---0----------------------------------------------------|
G---0----------------------------------------------------|
D---2----------------------------------------------------|x2
A---2----------------------------------------------------|
E--------------------------------------------------------|

Mini-solo(with gain)
e--------------------------------------------------------|
B---10-10-10-8-8-8-8-8-8-10-10-10-8-8-8-8-8-8------------|
G--------------------------------------------------------|
D--------------------------------------------------------|
A--------------------------------------------------------|
E--------------------------------------------------------|

e---0 -0 -0 -0 -0 -0 -0-0-0 -0 -0 -0 -0 -0 -0-0----------|
B---12-12-12-10-10-10-8-8-12-12-12-10-10-10-8-8----------|
G--------------------------------------------------------|
D--------------------------------------------------------|
A--------------------------------------------------------|
E--------------------------------------------------------|

e---0 -0 -0 -0 -0 -0 -0 -0 -0 ---------------------------|
B---12-12-12-12-12-12-12-12-12---------------------------|
G--------------------------------------------------------|
D--------------------------------------------------------|
A--------------------------------------------------------|
E--------------------------------------------------------|
            
Hard to play? Try these video lessons and learn fast. | Correct




comments powered by Disqus
↑ Back to top | Tablatures and chords are parodies/interpretations of the original songs. You may use it for private study, scholarship, research or language learning purposes only