>
 >
Wilting On The Vine

Wilting On The Vine Guitar Tabs

Daath - Wilting On The Vine chords, tabs, tablatures, lyrics

Guitar lessons | Add/correct | Request | Top 50 tabs Artists:  A B C D E F G H I J K L M N O P Q R S T U V W X Y Z 0-9

Wilting On The Vine Guitar Tabs – Daath

CD, Sheet music, Poster

Do you like Wilting On The Vine? Share with your friends now
TabsTabs v2
-------------------------------------------------------------------------------
-------------------------------------------------------------------------------


This is my first tab so I will probably need some advice on layout and stuff.
Complete solo albeit about 1 second (which is weird) and definately a few/many mistakes, 
it is a bad ass solo!

Tuning: Drop C

G1 is Emil Werstler
G2 is Eyal Levi

Verse
g1&2
    EEEEEEEE|EEEEEEEE|EEEEEEQ |EEEEEEEEE
D|----------|--------|--------|---------|
A|.---------|--------|--------|---------|
F|----------|--------|--------|---------|
c|.---------|--------|--------|---------|
G|----5-4-5-|8-5--458|5-5-4-5-|1111-----|
C|--00-0-0-0|-0-00---|-0-0-0--|----3333-|
    .. . . .  . ..     . . .
g1
   EEEEEEEE|EEEEEEEE|EEEEEEQ |EEEEEEEEE
D|---------|--------|--------|---------|
A|---------|--------|--------|--------.|
F|---------|--------|--------|---------|
c|---------|--------|--------|--------.| x2
G|---5-4-5-|8-5--548|5-5-4-5-|1111-----|
C|-00-0-0-0|-0-00---|-0-0-0--|----3333-|
   .. . . .  . ..     . . .

g2 comes in during the chords on last bar of
first time through
put heavy vibrato on quarter and whole notes
   E  E E  E  E  E E  Q Q Q Q W
D|---------------------------------|
A|-10-9-10-11-10-9-11-10-5-8-6-2b-.|
F|---------------------------------| x2
c|--------------------------------.|
G|---------------------------------|
C|---------------------------------|

g1
outro to verse
  E E E E E E E E
D|------------------|
A|-----------------.|
F|------------------|
C|-----------------.| X2
G|-1-1-1-1----------|
C|---------3-3-3-3--|

second time bar g2
   E E E E E E E E
D|--------------------|
A|--------------------|
F|--------------------|
C|--------------------|
G|--4-4-4-4-----------|
C|----------6-6-6-6---|
Chorus

   E  EEEEEEEEEEEEEEEEE  EEEEEEEE
D|--------------------------------|
A|.-------------------------------|
F|--------------------------------|
C|.-------------1--4-45-----------|
G|-5p0-------5--------------------|
C|----1111111-11-11-1--6p0111111--|
      ....... .. .. .  . ........

1st & 3rd time
   EEEEEEEE
D|----------|
A|---------.|
F|----------|
C|---------.|
G|----------|
C|-44444444-|
   ........

2nd & 4th time
 tremelo these patterns
D|------------------|
A|-----------------.|
F|------------------|
C|-----------------.|
G|------------------|
C|-4444---4444---44-|
   ....   ....   ..


Bridge
all Even
second time round play open C5 instead of chord on 15th
D|------------------------------------|
A|-14/15 ----14 ----15 ----18 -------.|
F|-13/14 X12-13 X3--14 X8--17 X8------| X2
C|-11/12 ----11 ----12 ----15 -------.|
G|------------------------------------|
C|------------------------------------|

Play verse without g2 part

then chorus with the second time bar replaced with:
   EEQ  EEQ
D|-----------|
A|----------.|
F|-----------|
C|-545--545-.|
G|-545--545--|
C|-545--545--|

Fourth time bar is normal

Verse as normal


Weird break down
G1
   E E E E E E E E E E E E E E E E
D|----------------------------------|
A|---------------------------------.|
F|---------4-----------3------------| X4
C|-----4-----4---4-------3---------.|
G|-2-2---2-----2---1-1--------------|
C|-------------------------3-3-3-3--|

g2 just plays the 4th string on the same frets OR

   E  H    E  E  E  H    E  E  E  H
D|--------------------------------14--|
A|-12-15---14-11-12-15---14-11-12-----|
F|------------------------------------|
C|------------------------------------|
G|------------------------------------|
C|------------------------------------|

   E  E  H   E  E  E  E  E  W
D|-12-10-----12--------------------|
A|-------14-----15-14-12-14-15~----|
F|---------------------------------|
C|---------------------------------|
G|---------------------------------|
C|---------------------------------|

Arpeggios
I really can't decide on the last 3 notes of this bar
G1
D|------------------------------------------|
A|-----------------------------------------.|
F|------------------------------------------|
C|-------------------11------12------------.|
G|-8-12-8-0-8-12-8-0----12-8----12-7/11\7---|
C|------------------------------------------|

G2
D|----------------------------------|
A|---------------------------------.|
F|----------------------------------|
C|-----------------7-----8---------.|
G|-5-8-5-0-5-8-5-0---8-5---8-5/8\5--|
C|----------------------------------|

Power chords both guitars (Bow down in the desert)
D|---------------------|
A|.--------------------|
F|---------------------|
C|.-2-3-6-5-3-2-1-3-2--|
G|--2-3-6-5-3-2-1-3-2--|
C|--2-3-6-5-3-2-1-3-2--|

 1st time
D|--------------------|
A|-------------------.|
F|--------------------|
C|-2-3-7-6-3-2-1-3-2-.|
G|-2-3-7-6-3-2-1-3-2--|
C|-2-3-7-6-3-2-1-3-2--|

 2nd time
D|-----|-----------|
A|-----|.---------.|
F|-----|-----------| X7
C|-2-3-|.--7-6-3--.|
G|-2-3-|---7-6-3---|
C|-2-3-|---7-6-3---|

D|---------|
A|.-------.|
F|---------| X4
C|.-2-1-3-.|
G|--2-1-3--|
C|--2-1-3--|


Intro to solo
g2
D|---------------------------------|
A|---------------------------------|
F|---------------------------------|
C|---3-6-3---3-6-3---3-6-3---3-6-3-|
G|-5-------5-------5-------5-------|
C|-0-------------------------------|

Begins with Reinhaart bit
D|----------------------------------------------------|
A|-------------------9-10b----------------------------|
F|-----7-9---9-10-----------10-8-9~-------7p6---------|
C|----7---8-7----7-8------------------6-9-----8p7-----|
G|-5-8------------------------------8-----------------|
C|----------------------------------------------------|


D|-----------5-8/12-8-10-------------|
A|---------6-------------9-----------|
F|-------7-----------------10--------|
C|-----7----------------------10-----|
G|-5-8---------------------------11--|
C|-----------------------------------|

                            hold|----------|
D|------------------------------------11---|
A|-------------10----13 12---------13------|
F|--------9-------10-------10----9---------|
C|----------10----------------13-----------|
G|---8-11----------------------------------|
C|-7---------------------------------------|

Solo

D|------------12-15-12----14~---|
A|-15b--12-15----------12-------|
F|------------------------------|
C|------------------------------|
G|------------------------------|
C|------------------------------|


D|-------12-15-12----13~---|
A|-12-15----------12-------|
F|-------------------------|
C|-------------------------|
G|-------------------------|
C|-------------------------|

D|-------12-15-12----14-12-------------------10b-|
A|-12-15----------12-------15-14-13-12-----------|
F|-------------------------------------14-12-----|
C|-----------------------------------------------|
G|-----------------------------------------------|
C|-----------------------------------------------|

this bit was really hard to work out so check it please and comment
D|-14-12-------------14-12-------15-12----------|
A|-------13-12-11-12-------13-12-------13-12----|
F|----------------------------------------------|
C|----------------------------------------------|
G|----------------------------------------------|
C|----------------------------------------------|


D|-14-12-----------------------------------------|
A|-------13-12-11-12-13-12-11--------------------|
F|----------------------------12-11--------------|
C|-----------------------------------------------|
G|-----------------------------------------------|
C|-----------------------------------------------|

D|----------10-12----10-12-13----12-10-----------|
A|-------11-------11----------11-------11-10-----|
F|--9-12-----------------------------------------|
C|-----------------------------------------------|
G|-----------------------------------------------|
C|-----------------------------------------------|


D|--14-12----------12-14-17-16b----|
A|--------13-12-13-----------------|
F|---------------------------------|
C|---------------------------------|
G|---------------------------------|
C|---------------------------------|


D|-17b-br17p15h17-15-17-18-15-----------------------|
A|----------------------------16-15-----------------|
F|----------------------------------15-12-----------|
C|----------------------------------------13-11-12--|
G|--------------------------------------------------|
C|--------------------------------------------------|

D|---------------------------------|
A|---------------------------------|
F|---------------------------------|
C|--12-15-14-15~--15-12-14~--------|
G|---------------------------------|
C|---------------------------------|

G7 arpeggio
D|---------------------------------------------------15-------15---|
A|------------------------13---------13-15----13-15-----13-15------|
F|---------12-15----12-15-----12--15-------15----------------------|
C|-------12------12------------------------------------------------|
G|-10-13-----------------------------------------------------------|
C|-----------------------------------------------------------------|


D|--17-18-17-15-17~--15----15----15---|
A|----------------------18----18------|
F|------------------------------------|
C|------------------------------------|
G|------------------------------------|
C|------------------------------------|

D|---------------------------|
A|--18-15----15--------------|
F|--------17----17-15-17-----|  Can't get this next bit it seems weird
C|---------------------------|
G|---------------------------|
C|---------------------------|

D|--------------------------------------------------|
A|--------------------------------------------------|
F|--------------------12----------------------------|
C|-----------------11----15-14-12-10----------------|
G|-------10-12-13--------------------13-12-10-------|
C|-12-14--------------------------------------15-14-|


D|-----------------------------------------------|
A|-----------------------------------------------|
F|--------------------------------------12-13-15-|
C|--------------------9-10-11-12--14-15----------| cont.
G|-----------10-12-13----------------------------|
C|-12-14-15--------------------------------------|

D|-----------------------------------------------|
A|-----------------------------------------------|
F|-14-13-14-18-14-15-14----------------------14--|
C|----------------------17-15-14----14-15-17-----|
G|-------------------------------17--------------|
C|-----------------------------------------------|

D|-------------------------------|
A|-17------------------18-15-17--|
F|----19-15-----15-19------------|
C|----------19-------------------|
G|-------------------------------|
C|-------------------------------|

D|---------------------------------------------------------------------------------|
A|-----------------------------------------------------17-----------------18-15-17-|
F|-15-14-13-14-18-14-15-14-----------------------14-15----19-15----15-19-----------|
C|-------------------------17-15-14-----14-15-17----------------19-----------------|
G|----------------------------------15---------------------------------------------|
C|---------------------------------------------------------------------------------|

Large run
starts with a group of 5 and then precedes with groups of acsending 4 until it hits the A string
D|-------------------------------------------------------------------------------------|
A|-------------------------------------------------------------------------------------|
F|-------------------------------------------------------------------------------------| cont.
C|--------5-7----------8----------11-------11-12---------11-12----11-12-14-11-12-14-15-|
G|--5-7-8-----8-10-12----10-12-13----12-13--------12-13--------13----------------------|
C|-------------------------------------------------------------------------------------|
slightly palm muted
                                     double length note on 14 Astring
D|----------------------------------------------------------------------------|
A|-------------------------------------14-----14-15-17----14-15-17-14-17-18---|
F|----------12-------12-14----12-14-15-----15----------15---------------------|
C|-12-14-15----14-15-------15-------------------------------------------------|
G|----------------------------------------------------------------------------|
C|----------------------------------------------------------------------------|

ends with crazy huge bend vibrato with the verse under it
D|-18-17-16-17-21-18-17-18-12b~--------|
A|-------------------------------------|
F|-------------------------------------|
C|-------------------------------------|
G|-------------------------------------|
C|-------------------------------------|
Back into Verse

Verse with break down
    EEEEEEEE|EEEEEEEE|H   EEE |EEEEEEEEE
D|----------|--------|--------|---------|
A|.---------|--------|--------|---------|
F|----------|--------|--------|---------|
c|.---------|--------|--------|88883333-|X2
G|----5-4-5-|8-5--458|4b--5-4-|88883333-|
C|--00-0-0-0|-0-00---|-----0--|88883333-|
           heavily palm muted-[........]
End with different version of Verse

  E E E E  E  E  E  E  W
D|-------------------------|
A|------------------------.|
F|-------------------------|
C|------------------------.| x2
G|---------------------12--|
C|-8-8-8-8-11-11-11-11-12--|


************************************
| W = whole note, H = half, Q = Quarter,
| E = eighth, S = sixteenth
| /   slide up
| \   slide down
| h   hammer-on
| p   pull-off
| ~   vibrato
| +   harmonic
| x   Mute note
| b   Bend
| pb  Pre-bend
| br  Bend release
| pbr Pre-bend release
| brb Bend release bend

************************************





Comments


Popular Daath tabs & chords
Blender For The Baby Tabs
Day Of Endless Light Tabs
From The Blind Tabs
From The Blind 2 Tabs
Ovum Tabs
Ovum Intro 1 Tabs
Ovum Intro 2 Tabs
Placenta Tabs
Subterfuge Tabs
Subturfuge Tabs


Song lyrics



↑ Back to top | Tablatures and chords are parodies/interpretations of the original songs. You may use it for private study, scholarship, research or language learning purposes only
© 2014 AZChords.com Contact us | Privacy policy | DMCA | Add/correct tabs | Request tabs | Top 50 tabs