>
 >
From The Blind

From The Blind Guitar Tabs

Daath - From The Blind chords, tabs, tablatures, lyrics

Guitar lessons | Add/correct | Request | Top 50 tabs Artists:  A B C D E F G H I J K L M N O P Q R S T U V W X Y Z 0-9

From The Blind Guitar Tabs – Daath

CD, Sheet music, Poster

Do you like From The Blind? Share with your friends now
TabsTabs v2
Daath - From the Blind
Gtr I (C G C G C E) - 'Emil Werstler'
Gtr II (C G C G C E) - 'Eyal Levi'


  Q=104
 1/8   2/4
  Gtr I
  W     W                 W                 E   S S S S S S   S S S S S S S S
|-----|-----------------|-----------------|-----------------|------------------|
|-----|-----------------|-----------------|-----------------|------------------|
|-----|-----------------|-----------------|-------0-2-------|------------------|
|-----|-----------------|-----------------|-------------5-7-|-----------4------|
|-----|-----------------|-----------------|-----------------|---------6--------|
|-----|-----------------|-----------------|-----------------|-0-0-0-0-----0-0--|
|
| Gtr II
| S S   S S S S S S S S   S S S S S S S S   S S S S S S S S   S S S S S S S S
|-----|-----------------|-----------------|-----------------|------------------|
|-----|-----------------|-----------------|-----------------|------------------|
|-----|-----------------|-----------------|-----------------|------------------|
|-----|-----------------|-----------------|-----------------|------------------|
|-----|-----------------|-----------------|-----------------|------------------|
|-0-0-|-0-0-0-0-1-4-0-0-|-0-0-1-4-0-0-0-0-|-1-4-0-7-9-0-5-7-|-0-0-0-0-1-4-0-0--|


  S S S S S S S S   S S S S S S  S  S   S S S S  S  S S S   S S  S  S S S S S
|-----------------|-------------------|-------------------|-------------------|
|-----------------|-------------------|-------------------|-------------------|
|-----------------|-------------------|-------------------|-------------------|
|-------4---------|---4---7-9---------|-------------------|-------------------|
|-----6-----------|-6-----------10-12-|-------------------|-------------------|
|-0-0-----0-0-0-0-|-----0-----0-------|-0-0-0-0-13-16-0-0-|-0-0-13-16-0-0-0-0-|
|
| S S S S S S S S   S S S S S S  S  S   S S S S  S  S S S   S S  S  S S S S S
|-----------------|-------------------|-------------------|-------------------|
|-----------------|-------------------|-------------------|-------------------|
|-----------------|-------------------|-------------------|-------------------|
|-----------------|-------------------|-------------------|-------------------|
|-----------------|-------------------|-------------------|-------------------|
|-0-0-1-4-0-0-0-0-|-1-4-0-7-9-0--5--7-|-0-0-0-0--1--4-0-0-|-0-0--1--4-0-0-0-0-|


 3/8               4/4
   S  S S  S  S S   E. S S S S S S S S S S S S S
|-----------------|------------------------------|
|-----------------|------------------------------|
|-----------------|----------------------4-4-4---|
|-----------------|------------------------------|
|-----------------|-0------5-------------4-4-4---|
|-13-16-0-19-21-0-|-0--5-8---8-5-0-0-0-0-------5-|
|
|  S  S S  S  S S   E. S S S S S S S S S S S S S
|-----------------|------------------------------|
|-----------------|------------------------------|
|-----------------|----------------------4-4-4---|
|-----------------|------------------------------|
|-----------------|-0------5-------------4-4-4---|
|--1--4-0--7--9-0-|-0--5-8---8-5-0-0-0-0-------5-|


  S S S S S S S S S S S S S S S S
|----------------------------------|
|----------------------------------|
|-----------------3-3-3-3-3-3-4-4--|
|----------------------------------|
|---5-------------3-3-3-3-3-3-4-4--|
|-8---8-5-0-0-0-0------------------|
|
| S S S S S S S S S S S S S S S S
|----------------------------------|
|----------------------------------|
|-----------------3-3-3-3-3-3-4-4--|
|----------------------------------|
|---5-------------3-3-3-3-3-3-4-4--|
|-8---8-5-0-0-0-0------------------|


  Gtrs I, II
  S S S S Q  +E  E +S  E.   E. S S S S S S S S S S S S S
|-------------------------|------------------------------|
|----------------8-(8)----|------------------------------|
|-4-4-4-4-5--(5)-------9--|----------------------4-4-4---|
|---------0--(0)-8-(8)----|------------------------------|
|-4-4-4-4--------------9--|-0------5-------------4-4-4---|
|-------------------------|-0--5-8---8-5-0-0-0-0-------5-|


  S S S S S S S S S S S S S S S S   S S S S Q  +E  E +S  E.
|---------------------------------|--------------------------|
|---------------------------------|----------------8-(8)-----|
|-----------------3-3-3-3-3-3-4-4-|-4-4-4-4-5--(5)-------9---|
|---------------------------------|---------0--(0)-8-(8)-----|
|---5-------------3-3-3-3-3-3-4-4-|-4-4-4-4--------------9---|
|-8---8-5-0-0-0-0-----------------|--------------------------|


 3/4
  S S S S S S S S S S S S   S S S S S S S S S S S S   S S S S S S S S S S S S
|-------------------------|-------------------------|-------------------------|
|-------------------------|-------------------------|-------------------------|
|-------------------------|-------------------------|-------------------------|
|-------------------------|-------------------------|-------------------------|
|-------5-----------1-----|-------5-------4-5-4-1-4-|-------5-----------1-----|
|-0-5-8---8-5-0-1-4---4-1-|-0-5-8---8-5-0-----------|-0-5-8---8-5-0-1-4---4-1-|


  Gtr I
  S S S S S S S S S S S S   S S  S S S S  S  S  S S  S  S
|-------------------------|-------------------------------|
|-------------------------|-------------------------------|
|-------------------------|-------------------------------|
|---------------------8---|-------------------------------|
|-------5-------5-4-5---5-|-5--------5--------------------|
|-0-5-8---8-5-0-----------|---8--5-8---8-11--8--5-8-11--8-|
|
| Gtr II
| S S S S S S S S S S S S   S S  S S S S  S  S  S S  S  S
|-------------------------|-------------------------------|
|-------------------------|-------------------------------|
|-------------------------|-5--------5--------------------|
|---------------------8---|---8----8---8-11-------8-11----|
|-------5-------5-4-5---5-|-----10----------13-10------13-|
|-0-5-8---8-5-0-----------|-------------------------------|


   S  S  S S  S S S S S S  S  S
|--------------------------------|
|--------------------------------|
|--------------------------------|
|-------------------4-7---10-----|
|-----------------6-----9----12--|
|-10--8--5-8-10-8----------------|
|
|  S  S  S S  S S S S S S  S  S
|---------------------3----6-----|
|-------------------4---4-----7--|
|-----------------6--------------|
|----------8-10-8----------------|
|-15-13-10-----------------------|
|--------------------------------|


   S S  S S S S  S  S  S S  S  S
|--------------------------------|
|--------------------------------|
|--------------------------------|
|--------------------------------|
|-----------5--------------------|
|-12-8--5-8---8-11--8--5-8-11--8-|
|
|  S S  S S S S  S  S  S S  S  S
|--------------------------------|
|--------------------------------|
|--5--------5--------------------|
|----8----8---8-11-------8-11----|
|------10----------13-10------13-|
|--------------------------------|


                                 4/4
   S  S  S S  S S S S S S  S  S    Q    Q    Q   Q
|-------------------------------|---------------------|
|-------------------------------|---------------------|
|-------------------------------|-10---10---10---9----|
|-------------------4-7---10----|---------------------|
|-----------------6-----9----12-|-10---10---10---9----|
|-10--8--5-8-10-8---------------|---------------------|
|
|  S  S  S S  S S S S S S  S  S    E E  E E  E E E. S
|---------------------3----6----|---------------------|
|-------------------4---4-----7-|---------------------|
|-----------------6-------------|---------------------|
|----------8-10-8---------------|---------------------|
|-15-13-10----------------------|--5-8--7-5--7-5-4--4-|
|-------------------------------|--5-8--7-5--7-5-4--4-|


   Q    Q    Q    Q       Q    Q    Q    Q       Q        Q        Q       Q
|----------------------|----------------------|--------------------------------|
|----------------------|-----------10---11----|-11-------10--------------------|
|-10---10--------------|-10---10--------------|-------------------10-------9---|
|-----------12---12----|-----------10---11----|-11-------10--------------------|
|-10---10--------------|-10---10--------------|-------------------10-------9---|
|-----------12---12----|----------------------|--------------------------------|
|
|  E E  E E  E E  E. S    E E  E E  E E  E. S    S S S S  S S S S  S S S S E E
|----------------------|----------------------|--------------------------------|
|----------------------|----------------------|--------------------------------|
|----------------------|----------------------|--------------------------------|
|----------------------|----------------------|--------------------------------|
|--5-8--7-5--7-5--4--4-|--5-8--7-5--7-5--4--4-|--------6-------------6-----4-4-|
|--5-8--7-5--7-5--4--4-|--5-8--7-5--7-5--4--4-|--6-4-0----4-0-6-4--0---4-0-4-4-|


  Gtrs I, II
  E E E E S S S S S S S S   E E E E S S S S S S S S   E E E E S S S S S S S S
|-------------------------|-------------------------|--------------------------|
|-------------------------|-------------------------|--------------------------|
|-------------------------|-------------------------|--------------------------|
|-5-8-5-8-----------------|-5-8-5-8-----------------|-5-8-5-8------------------|
|-5-8-5-8-0-0---0---0-0-0-|-5-8-5-8-0-0---0---0-0-0-|-5-8-5-8-0-0---0---0-0-0--|
|-5-8-5-8-0-0---0---0-0-0-|-5-8-5-8-0-0---0---0-0-0-|-5-8-5-8-0-0---0---0-0-0--|


                           3/4
  E E E E S S S S S S S S   S S S S S S S S S S S S   S S S S S S S S S S S S
|-------------------------|-------------------------|-------------------------|
|-------------------------|-------------------------|-------------------------|
|-------------------------|-------------------------|-------------------------|
|-5-8-5-8-----------------|-------------------------|-------------------------|
|-5-8-5-8-0-0---0---0-0-0-|-------5-----------1-----|-------5-------4-5-4-1-4-|
|-5-8-5-8-0-0---0---0-0-0-|-0-5-8---8-5-0-1-4---4-1-|-0-5-8---8-5-0-----------|


  Gtr I
  S S S S S S S S S S S S   S S S S S S S S S S S S
|-------------------------|-------------------------|
|-------------------------|-------------------------|
|-------------------------|-------------------------|
|-------------------------|---------------------8---|
|-------5-----------1-----|-------5-------5-4-5---5-|
|-0-5-8---8-5-0-1-4---4-1-|-0-5-8---8-5-0-----------|
|
| Gtr II
| S S S S S S S S S S S S   S S S S S S S S S S S S
|-------------------------|-------------------------|
|-------------------------|-------------------------|
|-------------------------|-------------------------|
|-------------------------|---------------------8---|
|-------5-----------1-----|-------5-------5-4-5---5-|
|-0-5-8---8-5-0-1-4---4-1-|-0-5-8---8-5-0-----------|


  S S  S S S S  S  S  S S  S  S
|--------------------------------|
|--------------------------------|
|--------------------------------|
|--------------------------------|
|-5--------5---------------------|
|---8--5-8---8-11--8--5-8-11--8--|
|
| S S  S S S S  S  S  S S  S  S
|--------------------------------|
|--------------------------------|
|-5--------5---------------------|
|---8----8---8-11-------8-11-----|
|-----10----------13-10------13--|
|--------------------------------|


   S  S  S S  S S S S S S  S  S
|-------------------------------|
|-------------------------------|
|-------------------------------|
|-------------------4-7---10----|
|-----------------6-----9----12-|
|-10--8--5-8-10-8---------------|
|
|  S  S  S S  S S S S S S  S  S
|---------------------3----6----|
|-------------------4---4-----7-|
|-----------------6-------------|
|----------8-10-8---------------|
|-15-13-10----------------------|
|-------------------------------|


   S S  S S S S  S  S  S S  S  S    S  S  S S  S S S S S S  S  S
|--------------------------------|--------------------------------|
|--------------------------------|--------------------------------|
|--------------------------------|--------------------------------|
|--------------------------------|-------------------4-7---10-----|
|-----------5--------------------|-----------------6-----9----12--|
|-12-8--5-8---8-11--8--5-8-11--8-|-10--8--5-8-10-8----------------|
|
|  S S  S S S S  S  S  S S  S  S    S  S  S S  S S S S S S  S  S
|--------------------------------|---------------------3----6-----|
|--------------------------------|-------------------4---4-----7--|
|--5--------5--------------------|-----------------6--------------|
|----8----8---8-11-------8-11----|----------8-10-8----------------|
|------10----------13-10------13-|-15-13-10-----------------------|
|--------------------------------|--------------------------------|


 4/4
   Q    Q    Q   Q       Q    Q    Q    Q       Q    Q    Q    Q
|---------------------|----------------------|----------------------|
|---------------------|----------------------|-----------10---11----|
|-10---10---10---9----|-10---10--------------|-10---10--------------|
|---------------------|-----------12---12----|-----------10---11----|
|-10---10---10---9----|-10---10--------------|-10---10--------------|
|---------------------|-----------12---12----|----------------------|
|
|  E E  E E  E E E. S    E E  E E  E E  E. S    E E  E E  E E  E. S
|---------------------|----------------------|----------------------|
|---------------------|----------------------|----------------------|
|---------------------|----------------------|----------------------|
|---------------------|----------------------|----------------------|
|--5-8--7-5--7-5-4--4-|--5-8--7-5--7-5--4--4-|--5-8--7-5--7-5--4--4-|
|--5-8--7-5--7-5-4--4-|--5-8--7-5--7-5--4--4-|--5-8--7-5--7-5--4--4-|


   Q        Q        Q       Q     E E E E S S S S S S S S
|--------------------------------|--------------------------|
|-11-------10--------------------|--------------------------|
|-------------------10-------9---|--------------------------|
|-11-------10--------------------|-5-8-5-8------------------|
|-------------------10-------9---|-5-8-5-8-0-0---0---0-0-0--|
|--------------------------------|-5-8-5-8-0-0---0---0-0-0--|
|
|  S S S S  S S S S  S S S S E E   E E E E S S S S S S S S
|--------------------------------|--------------------------|
|--------------------------------|--------------------------|
|--------------------------------|--------------------------|
|--------------------------------|-5-8-5-8------------------|
|--------6-------------6-----4-4-|-5-8-5-8-0-0---0---0-0-0--|
|--6-4-0----4-0-6-4--0---4-0-4-4-|-5-8-5-8-0-0---0---0-0-0--|


  Gtrs I, II
  E E E E S S S S S S S S   E E E E S S S S S S S S   E E E E S S S S S S S S
|-------------------------|-------------------------|--------------------------|
|-------------------------|-------------------------|--------------------------|
|-------------------------|-------------------------|--------------------------|
|-5-8-5-8-----------------|-5-8-5-8-----------------|-5-8-5-8------------------|
|-5-8-5-8-0-0---0---0-0-0-|-5-8-5-8-0-0---0---0-0-0-|-5-8-5-8-0-0---0---0-0-0--|
|-5-8-5-8-0-0---0---0-0-0-|-5-8-5-8-0-0---0---0-0-0-|-5-8-5-8-0-0---0---0-0-0--|


  Q  E E E E E E   Q  E E E E E E   Q  E E E E E E   E. S +Q   +H
|----------------|----------------|----------------|------------------|
|----------------|----------------|----------------|------------------|
|------------0---|------------0---|----------------|----0-(0)--(0)----|
|-5--7-5-8-4-2-5-|-5--7-5-8-4-2-5-|-1--3-1-4-3-1-3-|-0----------------|
|-5--7-5-8-4-0-5-|-5--7-5-8-4-0-5-|-1--3-1-4-3-1-3-|-0--0-(0)--(0)----|
|-5--7-5-8-4---5-|-5--7-5-8-4---5-|-1--3-1-4-3-1-3-|-0----------------|


  Q  E E E E E E   Q  E E E E E E   Q  E E E E E E   E. S +Q   +H
|----------------|----------------|----------------|------------------|
|----------------|----------------|----------------|------------------|
|------------0---|------------0---|----------------|----0-(0)--(0)----|
|-5--7-5-8-4-2-5-|-5--7-5-8-4-2-5-|-1--3-1-4-3-1-3-|-0----------------|
|-5--7-5-8-4-0-5-|-5--7-5-8-4-0-5-|-1--3-1-4-3-1-3-|-0--0-(0)--(0)----|
|-5--7-5-8-4---5-|-5--7-5-8-4---5-|-1--3-1-4-3-1-3-|-0----------------|


  E E E E E E E E   E E E E E E +Q     E E E E E E E E   E E E E E E +Q
|-----------------|------------------|-----------------|------------------|
|-----------------|------------------|-----------------|------------------|
|-----------------|------------------|-----------------|------------------|
|-----------------|------------------|-----------------|------------------|
|-4-----4---1---1-|-4-----4---1-(1)--|-4-----4---1---1-|-4-----4---1-(1)--|
|-4-0-0-1-0-1-0-1-|-4-0-0-1-0-1-(1)--|-4-0-0-1-0-1-0-1-|-4-0-0-1-0-1-(1)--|


  E E E E E E E E   E E E E E E +Q     E E E E E E E E   E E E E E E +Q
|-----------------|------------------|-----------------|------------------|
|-----------------|------------------|-----------------|------------------|
|-----------------|------------------|-----------------|------------------|
|-----------------|------------------|-----------------|------------------|
|-4-----4---1---1-|-4-----4---1-(1)--|-4-----4---1---1-|-4-----4---1-(1)--|
|-4-0-0-1-0-1-0-1-|-4-0-0-1-0-1-(1)--|-4-0-0-1-0-1-0-1-|-4-0-0-1-0-1-(1)--|


 3/4
  Gtr I
  S S E   E   S S S S E     S S E   E   S S S S E     S S E   E   S S S S E
|-------------------------|-------------------------|-------------------------|
|-------------------------|-------------------------|-------------------------|
|-------------------------|-------------------------|-------------------------|
|-------------------------|-------------------------|-------------------------|
|-0-----------0---0-0-----|-0-----------0---0-0-----|-0-----------0---0-0-----|
|-0-----------0---0-0-----|-0-----------0---0-0-----|-0-----------0---0-0-----|
|
| Gtr II
| S S S S S S S S S S S S   S S S S S S S S S S S S   S S S S S S S S S S S S
|-------------------------|-------------------------|-------------------------|
|-0-----------------------|-------------------------|-------------------------|
|---1-0-1-0-----------1-4-|-5-------------------1-4-|-5-------------------1-4-|
|-----------6-7-6---3-----|---8-7-8-7-6-7-6---3-----|---8-7-8-7-6-7-6---3-----|
|-----------------5-------|-----------------5-------|-----------------5-------|
|-------------------------|-------------------------|-------------------------|


                                               4/4
  S S E   E   S S S S E     W        W          E  E E E  E  E  E  E
|-------------------------|--------|----------|-----------------------|
|-------------------------|--------|----------|-----------------------|
|-------------------------|--------|----------|-----------------------|
|-------------------------|--------|----------|-----------------------|
|-0-----------0---0-0-----|--------|----------|-4------4-----1-----1--|
|-0-----------0---0-0-----|--------|----------|-4--0-0-1--0--1--0--1--|
|
| S S S S S S S S S S S S   W        W          Q.     E +E  E +Q
|-------------------------|--------|----------|-----------------------|
|-------------------------|--------|----------|-----------------------|
|-5-------------------1-4-|--------|----------|-5------4-(4)-1-(1)----|
|---8-7-8-7-6-7-6---3-----|--------|----------|-0---------------------|
|-----------------5-------|--------|----------|--------4-(4)-1-(1)----|
|-------------------------|--------|----------|-----------------------|


  E E E E  E  E +E     E   W
|------------------------|-----------------|
|------------------------|-----------------|
|------------------------|-----------------|
|------------------------|-----------------|
|-4-----4-----1-(1)------|-----------------|
|-4-0-0-1--0--1-(1)------|-----------------|
|
| E E E E +Q     S  E.     E E E E E E E E
|------------------------|-----------------|
|-0-2-0------------------|-----------------|
|-------4-(4)------------|-----------------|
|-0----------------------|-----------------|
|-------4-(4)-------4----|-4-----4---1---1-|
|-------------------4----|-4-0-0-1-0-1-0-1-|


  W                  E  E E E  E  E  E  E
|------------------|-----------------------|
|------------------|-----------------------|
|------------------|-----------------------|
|------------------|-----------------------|
|------------------|-4------4-----1-----1--|
|------------------|-4--0-0-1--0--1--0--1--|
|
| E E E E E E +Q     Q.     E +E  E +Q
|------------------|-----------------------|
|------------------|-0---------------------|
|------------------|--------4-(4)-1-(1)----|
|------------------|-0---------------------|
|-4-----4---1-(1)--|--------4-(4)-1-(1)----|
|-4-0-0-1-0-1-(1)--|-----------------------|


  E E E E  E  E +Q     W
|--------------------|-----------------|
|--------------------|-----------------|
|--------------------|-----------------|
|--------------------|-----------------|
|-4-----4-----1-(1)--|-----------------|
|-4-0-0-1--0--1-(1)--|-----------------|
|
| E E E E +H           E E E E E E E E
|--------------------|-----------------|
|-0-2-0--------------|-----------------|
|-------4-(4)--------|-----------------|
|-0------------------|-----------------|
|-------4-(4)--------|-4-----4---1---1-|
|--------------------|-4-0-0-1-0-1-0-1-|


                    3/4
  W                  S S S S S S S S S S S S
|------------------|--------------------------|
|------------------|--------------------------|
|------------------|--------------------------|
|------------------|--------------------------|
|------------------|-------5-----------1------|
|------------------|-0-5-8---8-5-0-1-4---4-1--|
|
| E E E E E E S E.   S S S S S S S S S S S S
|------------------|--------------------------|
|------------------|--------------------------|
|------------------|--------------------------|
|------------------|--------------------------|
|-4-----4---1-4-1--|-------5-----------1------|
|-4-0-0-1-0-1-4-1--|-0-5-8---8-5-0-1-4---4-1--|


  Gtrs I, II
  S S S S S S S S S S S S   S S S S S S S S S S S S   S S S S S S S S S S S S
|-------------------------|-------------------------|--------------------------|
|-------------------------|-------------------------|--------------------------|
|-------------------------|-------------------------|--------------------------|
|-------------------------|-------------------------|---------------------8----|
|-------5-------4-5-4-1-4-|-------5-----------1-----|-------5-------5-4-5---5--|
|-0-5-8---8-5-0-----------|-0-5-8---8-5-0-1-4---4-1-|-0-5-8---8-5-0------------|


  Gtr I
  S S  S S S S  S  S  S S  S  S    S  S  S S  S S S S S S  S  S
|-------------------------------|-------------------------------|
|-------------------------------|-------------------------------|
|-------------------------------|-------------------------------|
|-------------------------------|-------------------4-7---10----|
|-5--------5--------------------|-----------------6-----9----12-|
|---8--5-8---8-11--8--5-8-11--8-|-10--8--5-8-10-8---------------|
|
| Gtr II
| S S  S S S S  S  S  S S  S  S    S  S  S S  S S S S S S  S  S
|-------------------------------|---------------------3----6----|
|-------------------------------|-------------------4---4-----7-|
|-5--------5--------------------|-----------------6-------------|
|---8----8---8-11-------8-11----|----------8-10-8---------------|
|-----10----------13-10------13-|-15-13-10----------------------|
|-------------------------------|-------------------------------|


   S S  S S S S  S  S  S S  S  S
|---------------------------------|
|---------------------------------|
|---------------------------------|
|---------------------------------|
|-----------5---------------------|
|-12-8--5-8---8-11--8--5-8-11--8--|
|
|  S S  S S S S  S  S  S S  S  S
|---------------------------------|
|---------------------------------|
|--5--------5---------------------|
|----8----8---8-11-------8-11-----|
|------10----------13-10------13--|
|---------------------------------|


                                 4/4
   S  S  S S  S S S S S S  S  S    Q    Q    Q   Q
|-------------------------------|---------------------|
|-------------------------------|---------------------|
|-------------------------------|-10---10---10---9----|
|-------------------4-7---10----|---------------------|
|-----------------6-----9----12-|-10---10---10---9----|
|-10--8--5-8-10-8---------------|---------------------|
|
|  S  S  S S  S S S S S S  S  S    E E  E E  E E E. S
|---------------------3----6----|---------------------|
|-------------------4---4-----7-|---------------------|
|-----------------6-------------|---------------------|
|----------8-10-8---------------|---------------------|
|-15-13-10----------------------|--5-8--7-5--7-5-4--4-|
|-------------------------------|--5-8--7-5--7-5-4--4-|


   Q    Q    Q    Q       Q    Q    Q    Q
|----------------------|-----------------------|
|----------------------|-----------10---11-----|
|-10---10--------------|-10---10---------------|
|-----------12---12----|-----------10---11-----|
|-10---10--------------|-10---10---------------|
|-----------12---12----|-----------------------|
|
|  E E  E E  E E  E. S    E E  E E  E E  E. S
|----------------------|-----------------------|
|----------------------|-----------------------|
|----------------------|-----------------------|
|----------------------|-----------------------|
|--5-8--7-5--7-5--4--4-|--5-8--7-5--7-5--4--4--|
|--5-8--7-5--7-5--4--4-|--5-8--7-5--7-5--4--4--|


   Q        Q        Q       Q     E E E E S S S S S S S S
|--------------------------------|--------------------------|
|-11-------10--------------------|--------------------------|
|-------------------10-------9---|--------------------------|
|-11-------10--------------------|-5-8-5-8------------------|
|-------------------10-------9---|-5-8-5-8-0-0---0---0-0-0--|
|--------------------------------|-5-8-5-8-0-0---0---0-0-0--|
|
|  S S S S  S S S S  S S S S E E   E E E E S S S S S S S S
|--------------------------------|--------------------------|
|--------------------------------|--------------------------|
|--------------------------------|--------------------------|
|--------------------------------|-5-8-5-8------------------|
|--------6-------------6-----4-4-|-5-8-5-8-0-0---0---0-0-0--|
|--6-4-0----4-0-6-4--0---4-0-4-4-|-5-8-5-8-0-0---0---0-0-0--|


  Gtrs I, II
  E E E E S S S S S S S S   E E E E S S S S S S S S
|-------------------------|-------------------------|
|-------------------------|-------------------------|
|-------------------------|-------------------------|
|-5-8-5-8-----------------|-5-8-5-8-----------------|
|-5-8-5-8-0-0---0---0-0-0-|-5-8-5-8-0-0---0---0-0-0-|
|-5-8-5-8-0-0---0---0-0-0-|-5-8-5-8-0-0---0---0-0-0-|


  E E E E S S S S S S S S
|--------------------------*|
|--------------------------*|
|--------------------------*|
|-5-8-5-8------------------*|
|-5-8-5-8-0-0---0---0-0-0--*|
|-5-8-5-8-0-0---0---0-0-0--*|



Duration Legend
---------------
W - whole; H - half; Q - quarter; E - 8th; S - 16th; T - 32nd; X - 64th; a - acciaccatura
+ - note tied to previous; . - note dotted; .. - note double dotted
Uncapitalized letters represent notes that are staccato (1/2 duration)
Irregular groupings are notated above the duration line
Duration letters will always appear directly above the note/fret number it represents the
duration for.  Duration letters with no fret number below them represent rests.  Multi-
bar rests are notated in the form Wxn, where n is the number of bars to rest for.  Low
melody durations appear below the staff

Tablature Legend
----------------
 h   - hammer-on
 p   - pull-off
 b   - bend
 pb  - pre-bend
 r   - bend release (if no number after the r, then release immediately)
 /\  - slide into or out of (from/to "nowhere")
 s   - legato slide
 S   - shift slide
 - natural harmonic
[n]  - artificial harmonic
n(n) - tapped harmonic
 ~   - vibrato
 tr  - trill
 T   - tap
 TP  - trem. picking
 PM  - palm muting
\n/  - tremolo bar dip; n = amount to dip
 \n  - tremolo bar down
 n/  - tremolo bar up
/n\  - tremolo bar inverted dip
 =   - hold bend; also acts as connecting device for hammers/pulls
 <> - volume swell (louder/softer)
 x   - on rhythm slash represents muted slash
 o   - on rhythm slash represents single note slash

Misc Legend
-----------
 |  - bar
||  - double bar
||o - repeat start
o|| - repeat end
*|  - double bar (ending)
 :  - bar (freetime)
 $  - Segno
 &  - Coda
Tempo markers -  = BPM(8/16=s8/s16), where s8 = swing 8ths, s16 = swing 16ths





Comments


Popular Daath tabs & chords
Blender For The Baby Tabs
Child Says Intro Tabs
Filter Intro Tabs
From The Blind Intro Tabs
Ovum Intro Tabs
Ovum Intro 2 Tabs
Placenta Tabs
Subterfuge Intro Tabs
Wilting On The Vine Tabs
Wilting On The Vine 1 Tabs


Song lyrics



↑ Back to top | Tablatures and chords are parodies/interpretations of the original songs. You may use it for private study, scholarship, research or language learning purposes only
© 2014 AZChords.com Contact us | Privacy policy | DMCA | Add/correct tabs | Request tabs | Top 50 tabs