» » »

Revelation Tabs (ver.3)

Artists:  A B C D E F G H I J K L M N O P Q R S T U V W X Y Z # 

Revelation Tabs (ver.3)

D12
Rating:
0/5 (0 votes)

Hard to play? Try these video lessons and learn fast.
                Whole song use distortion

Intro:
e---------------------------------------------------------           e----15b---17-
b------0-1-0-------0-1-0---0-1-0--------------------------           b-------------
g--------------------------------------------------------- 2x then   g-------------
d----2--------2-3--------0--------------------------------           d-------------
a--0------------------------------------------------------           a-------------
e---------------------------------------------------------           e-------------

Main riff
e----------------------------------------------
b-10--12--13--15--17--15--18--17--13p12--------
g----------------------------------------------
d----------------------------------------------play until solo
a----------------------------------------------
e----------------------------------------------

solo:
e-15b17-15-17-17bu18bd17-15--11/12-15-11/12--10-12-12bu13bd12-
b-------------------------------------------------------------
g-------------------------------------------------------------
d-------------------------------------------------------------
a-------------------------------------------------------------
e-------------------------------------------------------------

e-10-8-10p8------------------------------------------------------------------
b-----------10-10-8h10-10/12-13-12-10h12-13p12p10-13p12p10-13p12p10-13p12p10-
g----------------------------------------------------------------------------
d----------------------------------------------------------------------------
a----------------------------------------------------------------------------
e----------------------------------------------------------------------------

e--------------------15-------15----17-20-17---15h17--------------
b-13/15-13-15--15b17----15b17-------------------------------------
g-----------------------------------------------------------------
d-----------------------------------------------------------------
a-----------------------------------------------------------------
e-----------------------------------------------------------------
            
Hard to play? Try these video lessons and learn fast. | Correct




comments powered by Disqus
↑ Back to top | Tablatures and chords are parodies/interpretations of the original songs. You may use it for private study, scholarship, research or language learning purposes only