» » »

D12, Purple Hills Tabs (ver.2)

Artists:  A B C D E F G H I J K L M N O P Q R S T U V W X Y Z # 

Purple Hills Tabs (ver.2)

D12 Tabs
 Rating:
4/5 (4 votes)
Purple Hills lessons Tabs too difficult? Try these video lessons and learn fast
                The other two versions on this site are alrite but this is as perfect as you can get

listen to the song and you'll have it
Devices used 
------------
S-slide
H-Hammer on
P-Pull off
v-vibrato

Main Riff-

E----0s4-11---11--9-7-9--9-7-6-7--4-6--4--2

Harmonica Solo

most of it is played on the e minor string sounds great once you've got it, again, you should listen to the song for correct timing

e--8-5--3-5--8-5-3-5--8--(8)h10p8-12
b-----------------------------------
g-----------------------------------
d-----------------------------------
a-----------------------------------
E-----------------------------------

e-12-10--85-12-15--17-15--12--8-10-8 
b-----------------------------------
g-----------------------------------
d-----------------------------------
a-----------------------------------
E-----------------------------------

e-5h8p5h8--9-11-15-11-15-11--11v-8--5v
b------------------------------------
g------------------------------------
d------------------------------------
a------------------------------------
E------------------------------------

e--7--8-8-8---7--8-8-8--7-8--8-8--10-12-10s5
b-------------------------------------------
g-------------------------------------------
d-------------------------------------------
a-------------------------------------------
E-------------------------------------------

e-12-8-5-12-8-5-12-8-5-5-5-8--12--(12)---8--(8)---5--(5)--3-5-----
b-------------------------------------------------------------4-0-
g-----------------------------------------------------------------2
d------------------------------------------------------------------
a------------------------------------------------------------------
E------------------------------------------------------------------

Bass Riff at the end of the song (sounds more like a bass when striked at the strings right after the fret your playing on)
e------------------------------
b------------------------------
g------------------------------
d------------------------------
a------------------------------
E-11-9-7-9-11-7-9-4-------------
            
Submit corrections

comments powered by Disqus
↑ Back to top | D12 Tabs for Purple Hills. Lyrics for acoustic guitar and electric guitar. Tablatures and chords are parodies/interpretations of the original songs. You may use it for private study, scholarship, research or language learning purposes only