» » »

Cypress Hill, Get Out Of My Head Tabs (ver.2)

Artists:  A B C D E F G H I J K L M N O P Q R S T U V W X Y Z # 

Get Out Of My Head Tabs (ver.2)

Cypress Hill Tabs
 Rating:
4/5 (4 votes)
Get Out Of My Head lessons Tabs too difficult? Try these video lessons and learn fast
1
                Tuning: Drop D

Main Riff
E/---------------------------------------------------------------------------
B/---------------------------------------------------------------------------
G/---------------------------------------------------------------------------
D/---------------------------------------------------------------------------
A/-02-3-0-02-3-0-02-3-0-02-0-4-3-2-3-0-02-3-0-02-3-0-02-3-4-3
D/-02-3-0-02-3-0-02-3-0-02-3-4-3-2-3-0-02-3-0-02-3-0-02-3-4-3

Bass Verse ( but you can play it on the guitar)
E/------------------------------------
B/------------------------------------
G/------------------------------------
D/------------------------------------
A/------------------------------------
D/-3/7-3/9-2-3/7-3/9-2-3/7-3/9-2

Play that as many times as necessary

Chorus
E/---------------------------------------------------------------------------
B/---------------------------------------------------------------------------
G/---------------------------------------------------------------------------
D/---------------------------------------------------------------------------
A/-3-3-3-7-7-7-7-3-3-3-9-9-9-2-2-3-3-3-7-7-7-7-3-3-3-9-9-9-2-2
D/-3-3-3-7-7-7-7-3-3-3-9-9-9-2-2-3-3-3-7-7-7-7-3-3-3-9-9-9-2-2

That’s all the riffs, listen to the song and repeat them as necessary,
Happy Jamming!!!!!
            
Submit corrections

comments powered by Disqus
↑ Back to top | Cypress Hill Tabs for Get Out Of My Head. Lyrics for acoustic guitar and electric guitar. 1 Tablatures and chords are parodies/interpretations of the original songs. You may use it for private study, scholarship, research or language learning purposes only