» » »

Cypher, Subzero Bass tabs (ver.2)

Artists:  A B C D E F G H I J K L M N O P Q R S T U V W X Y Z # 

Subzero Bass tabs (ver.2)

Cypher Tabs
Rating:
0/5 (0 votes)
Subzero lessons Tabs too difficult? Try these video lessons and learn fast
                Tunning:Standard 5 or drop D

Riff 1:
g:------------------------|
d:------------------------|
a:-------3-3-3-------3-3-3|
e:------------------------|
b:3-3-3--------3-3-3------|

Riff 2:
g:-------------------------------------------------|
d:-------------------------------------------------|
a:-------------------------------------------------|
e:-------------------------------------------------|
b:3-3--3-3-3-3-3-3-3-6-6-6-3-3--3-3-3-3-3-3-3-6-6-6|

Riff 3:
g:--------------------------------------------------------|
d:--------------------------------------------------------|
a:--------------------------3----------------------------3|
e:---0-1--5-3-5----0-1--0-1------0-1-1---5-3-5---0-1-0-1--|
b:3-------------3-------------3----------------3----------|
Enjoy!
            
Submit corrections

comments powered by Disqus
↑ Back to top | Cypher Bass for Subzero. Lyrics for acoustic guitar and electric guitar. Tablatures and chords are parodies/interpretations of the original songs. You may use it for private study, scholarship, research or language learning purposes only