» » »

Long Time Ago Tabs (ver.1)

Artists:  A B C D E F G H I J K L M N O P Q R S T U V W X Y Z # 

Long Time Ago Tabs (ver.1)

Current Swell
Rating:
0/5 (0 votes)

Hard to play? Try these video lessons and learn fast.
                Long time Ago


  G              C
e----------------------------------------------------|
b----------------------------------------------------|
g--------0-------------------------------------------|repeat x3.
d-----0h2--2-0--0--0h2-2-0h2-2-0h2-2-0---------------|
a--0h2---------2--3----------------------------------|
e-3--------------------------------------------------|

then
  D/Am               C
e-----------------------------------------------------|
b----------0------------------ 0-3--0-----------------|
g------0h2---2-0---0--------0h2--------2---0----------|
d---0h2----------2-----0h2----------------------------|
a-0------------------3--------------------------------|
e-----------------------------------------------------|


Verse: strum G, Strum C, Strum G, Strum C, strum G, Strum C, a few down
strokes on Am, a few down strokes on C, then back to the melody above when it returns to G.

Wicked band, one of my favorites.
Enjoy.
            
Hard to play? Try these video lessons and learn fast. | Correct




comments powered by Disqus
↑ Back to top | Tablatures and chords are parodies/interpretations of the original songs. You may use it for private study, scholarship, research or language learning purposes only