» » »

Current Swell, Inescapable Dome Tabs (ver.1)

Artists:  A B C D E F G H I J K L M N O P Q R S T U V W X Y Z # 

Inescapable Dome Tabs (ver.1)

Current Swell Tabs
Rating:
4/5 (1 vote)
Inescapable Dome lessons Tabs too difficult? Try these video lessons and learn fast
                this is a great song from a great band
this is also my first time actually trying to 'tab' a song so the solo is definately not 
to perfect..but it helps(I also didn't put the correct number of picks on certain 
when I say 4-4-4-4, he might hit them more than that.)


Cm7   F /slide/G#m  G
-3----1---------4---3---|
-4----1---------4---3---|
-3----2---------5---4---|
-5----3---------6---5---|
-3----3---------6---5---|
-3----1---------4---3---|

Is it the snowflakes here
in the winter time that keep ya home
or the cold dry air
that hurts to breathe on down your throat
the icey roads and the snowballs
that keep ya going
Your home has turned, into an
Inescapable dome

solo:
          2x                    |
--------------------------------|-------------------------------|
-8h10p8--6h8p6--4h6p4--2h4p2-0--|-8h10p8--6h8p6--4h6p4--2h4p2---|
--------------------------------|-----------------------------0-|
--------------------------------|-------------------------------|
--------------------------------|-------------------------------|
--------------------------------|-------------------------------|

------------------|-----------------------------------------------------------|
----------4-3-----|--------4--6b--4-6-4-6b---4-6-4-4---9--9-8-8--6-6--4-2h4-0-|
--0-3-5-4-----5-3-|--3h5-5----------------------------------------------------|
------------------|-----------------------------------------------------------|
------------------|-----------------------------------------------------------|
------------------|-----------------------------------------------------------|

-----------------------------------------------------------------|
----------4-3-----------------4-3------------------4-3-----------|
-3h5-5--3-----3-5-----3h5-5--3----3-5-----3h5--5-3-----4-4-4-4-4-|
-----------------------------------------------------------------|
-----------------------------------------------------------------|
-----------------------------------------------------------------|

------------------------------------------------------------|
-----4--6---6b-4-6-4-6b---4h6--4h6--4h6---4-------4-3-------|
-3h5-------------------------5----5----5----0-3-5-----5-3---|
------------------------------------------------------------|
------------------------------------------------------------|
------------------------------------------------------------|

---------------------------------------------------------------|
----------4-3--------------4-3---------------------------------|
-3h5--3h5----5-3---3h5-3h5----5-3-----3h5-5-5-5s0--4-4-4-4-4s5-|
---------------------------------------------------------------|
---------------------------------------------------------------|
---------------------------------------------------------------|


Why's it so hard to leave
you got no bills to pay
got no reason to stay, now
you're still livin' out
your parents place anyway
doing the same thing
that you have done everyday
and you make it out to be so
hard to leave, but you dont know..
you dont know, no
and you will never find out until you go
you wont know, till you go

your home has turned into an
inescapable dome
and you wont know now,
no, you wont know
until you go.

outro:
repeat the first part of the solo 3x
then end with:
-------------------------|
----------4-3------------|
--0-3-5-4-----5-3--3h5r--|
-------------------------|
-------------------------|
-------------------------|
            
Submit corrections

comments powered by Disqus
↑ Back to top | Current Swell Tabs for Inescapable Dome. Lyrics for acoustic guitar and electric guitar. Tablatures and chords are parodies/interpretations of the original songs. You may use it for private study, scholarship, research or language learning purposes only