» » »

Coming Home Tabs (ver.1)

Artists:  A B C D E F G H I J K L M N O P Q R S T U V W X Y Z # 

Coming Home Tabs (ver.1)

Current Swell
Rating:
0/5 (0 votes)

Hard to play? Try these video lessons and learn fast.
                They play with a slide, but with out you can still play it.

 Verse

x = mute right after strum.
     E        E       G         A        E
e----0--------7-------3---------5--------0x-------------|
b----0--------9-------3---------5--------0x-------------|
g----1--------9-------4---------6--------1x-------------|
d----2--------9-------5---------7--------2x-------------|
a----2--------7-------5---------7--------2x-------------|
e----0----------------3---------5--------0x-------------|


Don't matter where you're coming from...

hit each one a few times.
     E           G         A      A again
e----0-----------3---------5------5---------------|
b----0-----------3---------5------5---------------|
g----1-----------4---------6------6---------------|
d----2-----------5---------7------7---------------|
a----2-----------5---------7------7---------------|
e----0-----------3---------5------5---------------|



Chorus

Same as verse, just repeat the section over instead of muting the E.
     E        E       G         A
e----0--------7-------3---------5--------|
b----0--------9-------3---------5--------|
g----1--------9-------4---------6--------|
d----2--------9-------5---------7--------|
a----2--------7-------5---------7--------|
e----0----------------3---------5--------|



There's a bridge part in there near the end where they just go
E-G-A-G, and repeat a few times.


Great tune. Enjoy.
            
Hard to play? Try these video lessons and learn fast. | Correct




comments powered by Disqus
↑ Back to top | Tablatures and chords are parodies/interpretations of the original songs. You may use it for private study, scholarship, research or language learning purposes only