>
 >
Apart

Apart Guitar Tabs

Cure - Apart chords, tabs, tablatures, lyrics

Guitar lessons | Add/correct | Request | Top 50 tabs Artists:  A B C D E F G H I J K L M N O P Q R S T U V W X Y Z 0-9

Apart Guitar Tabs – Cure

CD, Sheet music, Poster

Do you like Apart? Share with your friends now
Bass TabsTabs
Apart-The Cure

Main riff:
(with flanger and slow echo)
(let ring for another measure)

E-------------------------------|
B-------------------------------|
G-----------2---0h2-------------|
D-------------------------------|
A-------0-----------------------|
E---5---------------------------|

Repeat this constantly (i.e., every other measure)

Synth line adapted for guitar:

One measure each of a swell on the following chords:
Am--221-
G --000-
Dm--323-
Am (same)

then this riff
B----5---5---5---6---------5--|-------3-------5--------3------|

B-------------3------5--------|-------------------------------|
G----5------------------------|--------5----------------------|

At the end of the first verse play the following fill (mixed low)

Dm---312 (four measures)
(strum pattern is easy enough to figure out; precision isn't important here 
anyway. Vary it a bit by not sounding all three notes; also, in the fourth
measure play a slide up to the 5th fret of the high E string)
Repeat, but play this for fourth measure:

E (high)------3/5---5-----5-----5

In second verse, play this fill at the line "He waits to hear her say 'forget'"

(let ring throughout)
E----------0---------------|------------3------------|
B----3--------3------3-----|------3--------3-----3---|
G-2-----2---------2-----2--|--0------0--------0----0-|

Then repeat first measure twice. Repeat.

Play this fill underneath chorus
(you do not play the main riff here)

(Second measure of fill above), then:

(let ring throughout)
E-1-1-1-1-1-1-1-1-1-1-1-1-1-0----|------0---------0-------0--------|
B-3-3-3-3-3-3-3-3-3-3-3-3-3-3----|---------0----------------0------|
G--------------------------------|--2---------5-------4------------| 

(Repeat last measure of above)
(Repeat the whole thing)

Solo:

G----4--5--5/7-7--4-5---4--|---4------------------------|
D--------------------------|-------5--7--5---5---2-2-2--|

G------2-2----5--5---5-4-5-4-5-|--4-4-------------------|----4-5--7--7--4-5--4-|
D-3--3-------------------------|---------5/2------------|----------------------|

G--4----------------------------|-------2----2--5----4-5-4-5-|
D-----5-7--5----5-----2-2-2-----|--3--3----------------------|

E--------------------------5--5--|-5------------------------------|
B--------------------------------|-----8-8-8---5-5-5--------------|
G---4---4-5----7---7---7---------|--------------------5-5-5---4-5-|

G--4--5--4/0-----------------|--------2---2---5------4--5~~-----|
D-----------------------2--2-|--3---3---------------------------|

E--3--3-----------3--3-----------|-----------------------------|
B--------------------------------|---5-6-5--5-6-5--5-6-5--5-6--|
G--------4---5~~~--------4--5~~~-|-----------------------------|

B---6/8---8--8-8-8-8-6-5----------|--------------------------|
G-------------------------5---5-5-|--5/7--7-7-7--------------|
D---------------------------------|--------------7-7-7-7-5--7|

G-----------------------|----2---2-2-2--2--4---|---2-2-2-2-2--2--4----|
D-------7-5---7--7------|--------------------2-|--------------------2-|

D----5---5-5---3------------|-------------------|
A-----------------7/3-------|---2-3--2-3--2-3---|

G--2-2-2-2-2--2--4------|--2-2-2-2-2--2--4---|
D-------------------2---|------------------2-|

D----5-5-5-5-5-3------|----------------------|
A----------------7/3--|-----2-3---2--2-3---2-|

Then third verse as before into chorus and end.





Comments


Popular Cure tabs & chords
All Cats Are Grey 2 Bass Tabs
The Drowning Man Bass Tabs
The Love Cats Bass Tabs
The Top 1 Bass Tabs
Taking Off Chords
10-15 Saturday Night 3 Tabs
A Letter To Elise Tabs
Bloodflowers 1 Tabs
Doing The Unstuck Tabs
This Is A Lie Ukulele


Song lyrics



↑ Back to top | Tablatures and chords are parodies/interpretations of the original songs. You may use it for private study, scholarship, research or language learning purposes only
© 2014 AZChords.com Contact us | Privacy policy | DMCA | Add/correct tabs | Request tabs | Top 50 tabs