» » »

Crowded House, Don't Dream It's Over Bass tabs (ver.1)

Artists:  A B C D E F G H I J K L M N O P Q R S T U V W X Y Z # 

Don't Dream It's Over Bass tabs (ver.1)

Crowded House Tabs
 Rating:
4/5 (4 votes)
Don't Dream It's Over lessons Tabs too difficult? Try these video lessons and learn fast
                In the recording, they play it down-tuned a little, so this will sound a little
bit off when you play it with the music.

[INTRO]
  Dm       Dm       Dm       Dm                                          
G:--------|--------|--------|--------797---7-|
D:--------|--------|--------|------79---979--|
A:--------|--------|--------|----------------|
E:--------|--------|--------|----------------|
                             1   2 +a3e+a4e+a
[VERSE]
  D                           Bm
    There is freedom within     There is freedom without
  G                                       F#m 
    Tryin' to catch the deluge in a paper cup
  D                           Bm
    There's a battle ahead      Many battles are lost
  G                                                    F#m     
    But you never see the end of the road while you're travelin' with me

  D        Bm       G        F#m      D        Bm       G        F#m
G:--------|--------|--------|--------|--------|--------|--------|--------|
D:0-------|---99---|--------|--------|--------|---99---|--------|----444-|
A:----5---|--------|--------|--------|5---5---|--------|--------|--------|
E:-57---56|7-----02|30203--3|2--22-57|-57---56|7-----02|30203--0|2--2---2|

[CHORUS]
  G         A                       D          Bm
    Hey now,  hey now         Don't dream it's over
  G         A                          D           Bm
    Hey now,  hey now         When the world comes in
  G           A             D                   Bm
    They come,  they come     To build a wall between us
  G                    G      A
    We know they won't win

  G   A    D   Bm    G   A    D   Bm   G   A    D   Bm   G        G     A
G:--------|---------|--------|--------|--------|--------|--------|--------|
D:--------|---------|--------|--------|--------|--------|--------|--------|
A:--------|5-------5|--------|5------5|--------|5-------|--------|-----00-|
E:3--35-57|--5677-7-|3--35-57|--567-7-|3--35-57|--567-75|3--33--3|3--33---|

[VERSE]
  D                        Bm
    Now I'm towing my car    There's a hole in the roof 
  G                                             F#m
    My possessions are causing me suspicion but there's no proof
  D                        Bm
    In the paper today       Tales of war and of waste
  G                                     F#m
    But you turn right over to the T.V. page

  D        Bm       G        F#m      D        Bm       G        F#m
G:--------|--------|--------|--------|--------|--------|--------|--------|
D:--------|---99---|--------|----444-|--------|---99---|--------|----444-|
A:5---5---|--------|--------|--------|5---5---|--------|--------|--------|
E:-57---56|7-----02|30203--3|2--2---2|-57---56|7-----02|30203--0|2--2---2|

[CHORUS]
  G         A                       D          Bm
    Hey now,  hey now         Don't dream it's over
  G         A                          D           Bm
    Hey now,  hey now         When the world comes in
  G           A             D                   Bm
    They come,  they come     To build a wall between us
  G                    G      A
    We know they won't win

  G   A    D   Bm    G   A    D   Bm   G   A    D   Bm   G        G     
G:--------|---------|--------|--------|--------|--------|--------|--------|
D:--------|---------|--------|--------|--------|--------|--------|--------|
A:--------|5-------5|--------|5------5|--------|5-------|--------|--------|
E:3--35-57|--5677-7-|3--35-57|--567-7-|3--35-57|--567-75|3--33--3|3--33--3|

[INSTRUMENTAL]
  D        Bm       G        F#m      D        Bm       G        F#m
G:--------|--------|--------|--------|--------|--------|--------|--------|
D:--------|--------|--------|----44--|--------|--------|--------|--------|
A:5---5---|--------|--------|--------|5---5---|--------|--------|--------|
E:---5--56|7--77-57|3--33--3|2--2---2|-57---56|7--77-02|30203--3|2--22--2|

  G   D    G   D    G   D    C   C    C   C    
G:--------|--------|--------|--------|--------|
D:--------|--------|5-57----|--------|-----575|
A:----5--5|----5--5|----5--5|3--33--3|3-5-7---|
E:3--3----|3-35----|--------|--------|--------|

[VERSE]
  D                            Bm
    Now I'm walking again        To the beat of a drum
  G                                                F#m
    And I'm counting the steps to the door of your heart
  D                            Bm 
    Only shadows ahead           Barely clearing the roof
  G                                       F#m
    Get to know the feeling of liberation and relief
  D         Bm        G        F#m       D         Bm        G        F#m
G:---------|---------|--------|---------|---------|---------|--------|--------|
D:---------|---------|--------|---------|---------|---------|--------|--------|
A:5--5555--|---------|--------|---------|5--5555--|---------|--------|--------|
E:-57----56|777777702|30203333|222222257|-57----56|777777702|30203330|22222222|

[CHORUS]
  G         A                       D          Bm
    Hey now,  hey now         Don't dream it's over
  G         A                          D           Bm
    Hey now,  hey now         When the world comes in
  G           A             D                   Bm
    They come,  they come     To build a wall between us
  G                    G       
    We know they won't win

  G   A    D   Bm    G   A    D   Bm   G   A    D   Bm   G        G      
G:--------|---------|--------|--------|--------|--------|--------|--------|
D:--------|---------|--------|--------|--------|--------|--------|--------|
A:--------|5--------|--------|5------5|--------|5------5|--------|--------|
E:3--35-57|--5677-75|3--35-57|--567-7-|3--35-57|--567-7-|3--33--3|3--33--3|

[CODA]
  G         A               D          Bm
                                          Don't let them 
  G         A               D          Bm
  Win
   (Hey now,  hey now)      
  G         A               D          Bm
   (Hey now,  hey now)      
  G         A               D          Bm
    Hey now,  hey now                     Don't let them 

  G         A               D          Bm
  Win                                     Don't let them
   (Hey now,  hey now)      
  G         A               D          Bm
  Win
   (Hey now,  hey now)      
  G         A               D          Bm
   (Hey now,  hey now)      
  G         A               D          Bm

  G   A    D   Bm    G   A    D     Bm       G   A    D   Bm   G   A    D   Bm      
G:--------|---------|--------|--7---797-----|--------|--------|--------|----------|
D:--------|---------|--------|-7--79---97--0|--------|--------|--------|------97--|
A:--------|5--------|--------|5----------97-|--------|5-------|--------|5----9--9-|
E:3--35-57|--5677-75|3--35--5|--------------|3--35-57|--567-75|3--35--5|--567-----|
                                2 +a3e+a4e+a                                3 4e+ 

March 23, 2012
            
Submit corrections

comments powered by Disqus
↑ Back to top | Crowded House Bass for Don't Dream It's Over. Lyrics for acoustic guitar and electric guitar. Tablatures and chords are parodies/interpretations of the original songs. You may use it for private study, scholarship, research or language learning purposes only