» » »

One Last Breath Tabs (ver.5)

Artists:  A B C D E F G H I J K L M N O P Q R S T U V W X Y Z # 

One Last Breath Tabs (ver.5)

Creed
Rating:
0/5 (0 votes)

Hard to play? Try these video lessons and learn fast.
                (Intro)
Tuning: normal(EAGDBe)

It's a hard song at first but practice it over and over and you'll 
come up with it. Just use finger picking for the intro and do 
the pull offs(p) and the hammer on(h) quick and it should 
sound like the real song.
---

Intro/Verse
              D                            Bm             G
e|-2---5---0h2-----------------------------------------------------3-2-----------|
B|-------------3-----2-3-5--5p3p2h3------3---2h3-------------3-------------------|
G|---------------0--------------------4----------4-------0-----------------------|
D|-0-0---0-----------------------------------------4---0---0---0-----------------|
A|-----------------0-----0-(0)------0--2--2--------------------------------------|
E|---------------------------------------------------3---------------------------|

            D               A6                  Bm            G
e|-2---3---2-2h3p2-----------------------------2---------------3-----------------|
B|-----------------3---------2-2h3p2---------2---2---------------3---------------|
G|-------------------4-----2---------------4-------4---------------0-------------|
D|-0-0---0---------------2---------------4-----------4-----0---------------------|
A|---------------------0---------------2-----------------2---2-------------------|
E|-----------------------------------------------------3-------------------------|

Use these chords to make the intro faster and easier

         D     Bm    G     A6
e|-------2-----2-----3-----2------|
B|-------3-----3-----3-----2------|
G|-------2-----4-----0-----2------|
D|-------0-----4-----0-----2------|
A|-------------2-----2-----0------|
E|-------------------3------------|

Chorus

D  F#  Bm  G
            
Hard to play? Try these video lessons and learn fast. | Correct




comments powered by Disqus
↑ Back to top | Tablatures and chords are parodies/interpretations of the original songs. You may use it for private study, scholarship, research or language learning purposes only