» » »

Creed, One Last Breath Tabs (ver.1)

Artists:  A B C D E F G H I J K L M N O P Q R S T U V W X Y Z # 

One Last Breath Tabs (ver.1)

Creed Tabs
 Rating:
4/5 (4 votes)
One Last Breath lessons Tabs too difficult? Try these video lessons and learn fast
1
                PROPS GO TO: Keith Mills

Drop D


-------2----5-----0h2-------------------------------------------------------------
-----------------------3---------2---3h5-------2h3p2h3------0------3----2--3--0---
--------------------------2-------------------------------------------------------
-------0--0----0-------------0-------------0--------------------------------------
---------------------------------------------------------0--2---2-----0-----------

----------------------------------3--2--2-------3------2---0h2p0------------------
---------------------------3--------------------------------------3---------------
-------------------------------2----------------------------------------------2---
-----4-------------5--------------------0---0-------0-----------------------2-----
---------------5------5-----------------------------------------------4--0--------
-----------5----------------------------------------------------------------------

------------------------------------2---------------------------------------------
---2---2h3p2---------------------2----2--------------------8----------------------
------------------0-----------4---------4---------------7----7--------------------
--------------4------------4--------------4----------5---------5------------------
-----------------------2--------------------------5--------------5----------------
-----------------------------------------------5----------------------------------

-------2----5-----0h2-------------------------------------------------------------
-----------------------3---------2---3h5-------2h3p2h3------0------3----2--3--0---
--------------------------2-------------------------------------------------------
-------0--0----0-------------0-------------0--------------------------------------
---------------------------------------------------------0--2---2-----0-----------

----------------------------------3--2--2-------3------2---0h2p0------------------
---------------------------3--------------------------------------3---------------
-------------------------------2----------------------------------------------2---
-----4-------------5--------------------0---0-------0-----------------------2-----
---------------5------5-----------------------------------------------4--0--------
-----------5----------------------------------------------------------------------

------------------------------------2---------------------------------------------
---2---2h3p2---------------------2----2--------------------8----------------------
------------------0-----------4---------4---------------7----7--------------------
--------------4------------4--------------4----------5---------5------------------
-----------------------2--------------------------5--------------5----------------
-----------------------------------------------5----------------------------------

----(2)-(2)-(2)-(2)---------------------------------------------------------------
-----3---3---3---3----------------------------------------------------------------
-----2---2---2---2----------4---4---4----11--11--11--11--0-----7--7--0------------
-----0---0---0---0----x-----4---4---4----9---9---9---9---0-----5--5--0------------
-----0---0---0---0----x-----4---4---4----9---9---9---9---0-----5--5--0------------
----------------------x------------------9---9---9---9---0-----5--5--0------------

---(2)-(2)-(2)-(2)----------------------------------------------------------------
----3---3---3---3-----------------------------------------------------------------
----2---2---2---2----------4-4-4-----11--11---7-----------------------------------
----0---0---0---0-----x----4-4-4-----9---9----5-----------------------------------
----0---0---0---0-----x----4-4-4-----9---9----5-----------------------------------
----------------------x--------------9---9----5-----------------------------------
            
Submit corrections

comments powered by Disqus
↑ Back to top | Creed Tabs for One Last Breath. Lyrics for acoustic guitar and electric guitar. 1 Tablatures and chords are parodies/interpretations of the original songs. You may use it for private study, scholarship, research or language learning purposes only