>
 >
Born Under A Bad Sign 1

Born Under A Bad Sign 1 Bass Tabs

Cream - Born Under A Bad Sign 1 chords, tabs, tablatures, lyrics

Guitar lessons | Add/correct | Request | Top 50 tabs Artists:  A B C D E F G H I J K L M N O P Q R S T U V W X Y Z 0-9

Born Under A Bad Sign 1 Bass Tabs – Cream

CD, Sheet music, Poster

Do you like Born Under A Bad Sign 1? Share with your friends now
Bass TabsBass Tabs v2ChordsTabsTabs v2Tabs v3Tabs v4Tabs v5Ukulele
-------------------------------------------------------------------------------
			     Born Under A Bad Sign - Cream
-------------------------------------------------------------------------------


Tuning: EADG

This is a revision of the excellent contribution made by
so have corrected them. Other than that, the layout is exactly the same.
Enjoy!


G---||---------------3-----|------------------||------------------------|
D---||*--------3--5-----5--|--------3--------*||------------------------|
A---||*--3--5--------------|--3--5-----------*||--2--3--4--5-----5------|
E---||---------------------|-----------6--3---||------------------------|



G---|-----------------|------------------|------------------------------|
D---|-----------------|------------------|--------3---------------------|
A---|--5--5--4--3-----|--3h5--3h5--------|--3--5------------------------|
E---|-----------------|------------5--3--|-----------6--3---------------|


    Bad luck and trouble... 4x
G---||----------------------||--||---------------3-----|----------------|
D---||*--------3-----3--5--*||--||*--------3--5-----5--|--------3-------|
A---||*--3--5--------------*||--||*--3--5--------------|--3--5----------|
E---||----------------------||--||---------------------|-----------6----|


        2x
G-------||--------------------|-----------------|--------------3--------|
D------*||--------------------|-----------------|--------3--5-----5-----|
A------*||--2--3--4--5-----5--|--5--5--4--3-----|--3--5-----------------|
E---3---||--------------------|-----------------|-----------------------|


                         No wine and women...    4x
G---|-----------------|--||----------------------||--||-----------------|
D---|--------3--------|--||*--------3-----3--5--*||--||*--------3--5----|
A---|--3--5-----------|--||*--3--5--------------*||--||*--3--5----------|
E---|-----------6--3--|--||----------------------||--||-----------------|


                             2x
G---3-----|------------------||--------------------|--------------------|
D------5--|--------3--------*||--------------------|--------------------|
A---------|--3--5-----------*||--2--3--4--5-----5--|--5--5--4--3--------|
E---------|-----------6--3---||--------------------|--------------------|


                                              4x
G---||---------------3-----|------------------||------------------------|
D---||*--------3--5-----5--|--------3--------*||------------------------|
A---||*--3--5--------------|--3--5-----------*||--2--3--4--5-----5------|
E---||---------------------|-----------6--3---||------------------------|



G---|--------------------|--------------------|-----------------|-------|
D---|--------------------|--------------------|-----------------|-------|
A---|--5--5--4--3-----3--|--2--3--4--5-----5--|--5--5--4--3-----|--3----|
E---|--------------------|--------------------|-----------------|-------|


                                     Bad luck and trouble... 4x
G---------------|-----------------|--||----------------------||--||-----|
D---------------|--------3--------|--||*--------3-----3--5--*||--||*----|
A---5--3--------|--3--5-----------|--||*--3--5--------------*||--||*----|
E---------6--3--|-----------6--3--|--||----------------------||--||-----|


                                         2x
G---------------3-----|------------------||--------------------|--------|
D---------3--5-----5--|--------3--------*||--------------------|--------|
A---3--5--------------|--3--5-----------*||--2--3--4--5-----5--|--5-----|
E---------------------|-----------6--3---||--------------------|--------|



G------------------|--------------------|-----------------|-------------|
D------------------|--------------------|-----------------|-------------|
A---5--4--3-----3--|--2--3--4--5-----5--|--5--5--4--3-----|--3--5--3----|
E------------------|--------------------|-----------------|-------------|


                                    Fade
G---------|--------------3-----||---------------3-----|-----------------|
D---------|--------3--5-----5--||*--------3--5-----5--|--------3--------|
A---------|--3--5--------------||*--3--5--------------|--3--5-----------|
E---6--3--|--------------------||---------------------|-----------6-----|


        4x
G-------||--------------------------------------------------------------|
D------*||--------------------------------------------------------------|
A------*||--------------------------------------------------------------|
E---3---||--------------------------------------------------------------|


| /  Slide up
| \  Slide down
| h  Hammer-on
| p  Pull-off
| ~  Vibrato
| +  Harmonic
| x  Mute note
===============================================================================





Comments


Popular Cream tabs & chords
Crossroads 1 Bass Tabs
Tales Of Brave Ulysses Chords
Crossroads Live Tabs
Politican Tabs
Strange Brew 5 Tabs
Sunshine Of Your Love Tabs
Toad 1 Tabs
White Room 2 Tabs
Tales Of Brave Ulysses Ukulele
World Of Pain Ukulele


Song lyrics



↑ Back to top | Tablatures and chords are parodies/interpretations of the original songs. You may use it for private study, scholarship, research or language learning purposes only
© 2014 AZChords.com Contact us | Privacy policy | DMCA | Add/correct tabs | Request tabs | Top 50 tabs