» » »

Cranberries, Zombie Tabs (ver.4)

Artists:  A B C D E F G H I J K L M N O P Q R S T U V W X Y Z # 

Zombie Tabs (ver.4)

Cranberries Tabs
 Rating:
4/5 (4 votes)
Zombie lessons Tabs too difficult? Try these video lessons and learn fast
                (Acoustic)
Guitar 1(singer),Guitar 2

Intro1: (Guitar 2) Strum each chord in this pattern>   ^v^v^v^v
E---0-------0---0------0------------
B---0-------0---0------3----------
G---0-------0---0------0-----------
D---2-------2---0------0----------
A---2-------3---2------0---------
E---------------3------2---------

Intro2/Verse/Chorus(guitar 2)
E---0---0---0----0-----------
B---0---0---0----0-----------
G---0---5---0----0----------
D---2---5---5----4----------
A---2---3---5----4----------
E-----------3----2-----------

Pre-Verse: Guitar 1 only, Guitar 2 continues playing the chords from intro2(he play this chords during all the song but not in the intro1)

E----7h8---5h7----3h5---2h3h2-------------------
B-------------------------------------3-3--0---------
G-----------------------------------------------------
D----------------------------------------------------
A----------------------------------------------------
E-----------------------------------------------------

In the verse Guitar 1 rest and guitar 2 play the intro2.
There is no solo in this version.
Chorus: Guitar 1

E---0---0---0----0-----------
B---0---0---0----0-----------
G---0---5---0----0----------
D---2---5---5----4----------
A---2---3---5----4----------
E-----------3----2-----------
            
Submit corrections

comments powered by Disqus
↑ Back to top | Cranberries Tabs for Zombie. Lyrics for acoustic guitar and electric guitar. Tablatures and chords are parodies/interpretations of the original songs. You may use it for private study, scholarship, research or language learning purposes only