>
 >
When You're Gone

When You're Gone Guitar Tabs

Cranberries - When You're Gone chords, tabs, tablatures, lyrics

Guitar lessons | Add/correct | Request | Top 50 tabs Artists:  A B C D E F G H I J K L M N O P Q R S T U V W X Y Z 0-9

When You're Gone Guitar Tabs – Cranberries

CD, Sheet music, Poster

Do you like When You're Gone? Share with your friends now
TabsTabs v2

When You're Gone by the Cranberries

I just bought the cd today (3/3/97) and this is my interpretation of how this song is played.
There is a capo on the 3rd fret. Corrections are welcome, and could someone post the solo?

Verse:
 C                         Am                       Em
E-0-----0-----0-----0-----|0-----0-----0-----0-----|0-----0-----0-----0-----|
B---1-----1-----1-----1---|--1-----1-----1-----1---|--0-----0-----0-----0---|
G-----0-----0-----0-----0-|----2-----2-----2-----2-|----0-----0-----0-----0-|
D-------------------------|------------------------|------------------------|
A-------------------------|------------------------|------------------------|
E-------------------------|------------------------|------------------------|

 G
E-3-----3-----3-----3-----|
B---0-----0-----0-----0---|
G-----0-----0-----0-----0-|
D-------------------------|
A-------------------------|
E-------------------------|

Chorus:
These chords are strummed:
C  X32010
Am X02210
Em 022000
F  133211

Play this during solo:
 C                         Am                       Em
E-0-----0-----0-----0-----|0-----0-----0-----0-----|0-----0-----0-----0-----|
B---1-----1-----1-----1---|--1-----1-----1-----1---|--0-----0-----0-----0---|
G-----0-----0-----0-----0-|----2-----2-----2-----2-|----0-----0-----0-----0-|
D-------------------------|------------------------|------------------------|
A-------------------------|------------------------|------------------------|
E-------------------------|------------------------|------------------------|

 F
E-1-----1-----1-----1-----|
B---1-----1-----1-----1---|
G-----2-----2-----2-----2-|
D-------------------------|
A-------------------------|
E-------------------------|

(Verse)
C           Am
Hold on to love
             Em
That is what I do
               G
Now that I've found you
C          Am
And from above
            Em
Everything's stinking
            G
They're not around you
    C
And in the night
          Am
I could be helpless
           Em                     G
I could be lonely, sleeping without you
    C                       Am
And in the day, everything's complex
                Em                  G
There's nothing simple when I'm not around you

(Chorus)
      C                    Am
But I miss you when you're gone
        Em        F
That is what I do

Hey baby
C                  Am
It's hard to carry on
             Em     F
That is what I knew

Hey baby...

(guitar solo part, which I haven't figured out yet, if someone could please post it :)

(Verse)
C          Am
Hold on to my hands
          Em
I feel I'm sinking
           G
Sinking without you
C         Am
And to my mind
            Em
Everything's stinking
           G
Stinking without you
    C                      Am
And in the night I could be helpless
          Em                  G
I could be lonely, sleeping without you
     C                      Am
And in the day, everything's complex
               Em
There's nothing simple
               G
When I'm not around you

(Chorus)
       C                    Am
And I miss you when you're gone
             Em   F
That is what I do

Hey baby
C                  Am
And it's hard to carry on
             Em   F
That is what I do

Hey baby...
"When You're Gone"
 CRANBERRIES
To The Faithful Departed


At last i found it!!!!The cranberries 3rd track in the departed
album.Quite simple as it has just one main riff throughout the song.
I think it sounds right.I don't know about tunings and stuff.I just look
for the notes.Check it out.

Use fingers for the main riff.A pick is ok, but not recommended.

main riff:

-clean acoustic-
   throughout
1|-----3----3----3----3-------3----3----3----3---------------|
2|-------4----4----4----4-------4----4----4----4-------------|
3|---------3----3----3----3-------5----5----5----5-----------|
4|-----------------------------------------------------------|
5|-----------------------------------------------------------|
6|-----------------------------------------------------------|


1|-----3----3----3----3-------6----6----6----6---------------|
2|-------3----3----3----3-------6----6----6----6-------------|
3|---------3----3----3----3-------7----7----7----7-----------|
4|-----------------------------------------------------------|
5|-----------------------------------------------------------|
6|-----------------------------------------------------------|


Add the fill just before the main riff somewhere near the verse.
Hear the song and look where.

fill 1:

b=bend

1|-----------------|
2|-----------------|
3|-------7b---8----|
4|-----------------|
5|-----------------|
6|-----------------|


I think this uses a tremolo bar or a floyd.I tried a wah with an 
electric but an acoustic???A point to ponder.....

fill 2:
(=push down bar/floyd/rock wah/vibrato/whatever....

1|----3(----3(----3(----6(-----|
2|----4(----4(----3(----6(-----|
3|----3(----5(----3(----7(-----|
4|-----------------------------|
5|-----------------------------|
6|-----------------------------|

Quite a simple solo.Don't expect any hammer-on pull-off skills here.
This ain't metallica or soundgarden.

solo:

~=vibrato

1|------------------------------------------------|
2|------------------------------------------------|
3|--8----6----8-----8---6---4------3----4----3----|
4|------------------------------------------------|
5|------------------------------------------------|
6|------------------------------------------------|

1|------------------------------------------------|
2|------------------------------------------------|
3|--3---4---3-----------------------------8-------|
4|--------------3~~---3---5---7---8---10----------|
5|------------------------------------------------|
6|------------------------------------------------|


That's all.Mail me for mistakes if there is any.Hope you enjoyed it!!

Muhammad Rizal...



 @||||||||||||@
~\------------/~
 ~\          /~
  ~NO REMORSE~
   ~\      /~
    ~\    /~
     ~\  /~
      ~\/~





Comments


Popular Cranberries tabs & chords
Salvation Bass Tabs
Dreams 1 Chords
False Chords
Saving Grace 1 Chords
Yeats Grave 1 Chords
You And Me 1 Chords
No Need To Argue 1 Tabs
Saving Grace Tabs
Concept Ukulele
Not Sorry Ukulele


Song lyrics



↑ Back to top | Tablatures and chords are parodies/interpretations of the original songs. You may use it for private study, scholarship, research or language learning purposes only
© 2014 AZChords.com Contact us | Privacy policy | DMCA | Add/correct tabs | Request tabs | Top 50 tabs