» » »

I Chords (ver.1)

Artists:  A B C D E F G H I J K L M N O P Q R S T U V W X Y Z # 

I Chords (ver.1)

Craeons
Rating:
0/5 (0 votes)

Hard to play? Try these video lessons and learn fast.
                Craeons
Non-Toxic
This band is similar to the opm funk band POT, the difference is this band has a female 
The pretty Elisette Blancaflor. Her voice is unusually excelent too!!!

Tuning: standard EADGBe

Chords used:
Em - 022000
C -  x32010
G -  320033
D -  xx0232

Intro: 
(x2)

Guitar 2: 2nd part
e|----3------------------------|----3-----------------------|
B|-0------0--3---0---0-0/5-5\3-|-0------0---3---------------|
G|-----------------0-----------|--------------------0h2-----|
D|-----------------------------|----------------2h4-----4\0-|
A|-----------------------------|----------------------------|
E|-----------------------------|----------------------------|
then
e|-2h3--0h2-----------------------------------------------------------------|
B|-----------0h3----1---0---1-----3-----------------------------------------|
G|----------------0---0---0---0-0-------2--2h4p2--0h2h4--2--0-------0h2-----|
D|----------------------------------0-0-------------------------2h4-----4\0-|
A|--------------------------------------------------------------------------|
E|--------------------------------------------------------------------------|


Verse 1:
Em                   C       G           D           
     Em
  I turn around then look at you, I hide what's inside the truth
          C              G                D                Em
You still love me like before, I don't wanna come back for more
          C            G              D                
         C         G    D
to see my tears on the ground flowing through my veins wrecking me higher my world
Em            C             G              D         
         Em
  Your pretty face is now I see, I can't believe that you will mind
       C           G         D               Em      
           C             G
Almost dying comes here, you brought back my life, it's time for me to let you go
           D    Em     C         G D
Now you're here my yay ya yay oh no


Chorus:
Em  C  G           D
  I, I, I'm not in love with you coz
Em  C  G          D
  I, I, I want to get through audibly
Em  C  G        D
  I, I, I wanna make you happy
   Em       C    G      D(hold)
at reason I let, it's because... of you


(Repeat 2nd part on Intro)


Verse 2:
Em              C              G               D     
            Em
  I'm turn your holding my own hand, I've been dreaming back this feeling
    C            G              D               Em
And If you walk away, get gonna hate myself for crying
       C                   G               D           
  C        G      D
And my world curves around you, No I can't hide it was free you, coz I love you


(Repeat Chorus)


Bridge: Very fast solo, Em-C-G-D (x8)


(Repeat Chorus)
            
Hard to play? Try these video lessons and learn fast. | Correct




comments powered by Disqus
↑ Back to top | Tablatures and chords are parodies/interpretations of the original songs. You may use it for private study, scholarship, research or language learning purposes only