» » »

I Tabs (ver.1)

Artists:  A B C D E F G H I J K L M N O P Q R S T U V W X Y Z # 

I Tabs (ver.1)

Craeons
Rating:
0/5 (0 votes)

Hard to play? Try these video lessons and learn fast.
                ----------------------------------------------------------------------------
                                  I - Creons
----------------------------------------------------------------------------

Intro: 1st riff
isang bagsak ng chords

e|-----------------------------------------------------------|
b|------8-----7-----5-7--7/8----------8-----7----------------|
g|--4/5---3/4---4-6----------5----4/5---3/4------------------|
d|-------------------------------------------------5/7-5-----|
a|---------------------------------------------5h7-------5---|
e|-----------------------------------------------------------|


2nd riff:
Chord accompanyment: em,c,g,d

e|---------------------------------------------------------------|
b|--5/8--7-5-----------------------------------------------------|
g|-----------5/7--5-7---7/9-7------------------------------------|
d|----------------------------9-10/12-9h11-9---------------------|
a|-------------------------------------------11-9------9/11-9----|
e|------------------------------------------------9h11--------9--|
            
Hard to play? Try these video lessons and learn fast. | Correct




comments powered by Disqus
↑ Back to top | Tablatures and chords are parodies/interpretations of the original songs. You may use it for private study, scholarship, research or language learning purposes only