>
 >
Tonight In Flames 1

Tonight In Flames 1 Guitar Tabs

Cradle Of Filth - Tonight In Flames 1 chords, tabs, tablatures, lyrics

Guitar lessons | Add/correct | Request | Top 50 tabs Artists:  A B C D E F G H I J K L M N O P Q R S T U V W X Y Z 0-9

Tonight In Flames 1 Guitar Tabs – Cradle Of Filth

CD, Sheet music, Poster

Do you like Tonight In Flames 1? Share with your friends now
Bass TabsBass Tabs v2TabsTabs v2Tabs v3Tabs v4
Ulbum: Thornography

Tuned into Drop D

A(Guitar 1)
E---------------------------------------------------------------------------|
B---------------------------------------------------------------------------|
G---------------------------------------------------------------------------|
D--0--00--1----------0--00--1-----------0--00--1----------0--00--1----------|
A--0--00--1----------0--00--1-----------0--00--1----------0--00--1--1-------|
D--0--00--1--1-3^-1--0--00--1--8-4-1-3--0--00--1--1-3^-1--0--00--1----4-1-3-|
      pm.               pm.                pm.               pm.

B(Guitar 1)Play with(C,D and E)
E----------|
B----------|
G----------|
D--2-----1-|
A--2-----1-|
D--2-----1-|

C(Guitar 2)
E----------------------------|
B----------------------------|
G-----4-2-4^---5-4-5---5-4-5-|
D---2--------1-------1-------|
A----------------------------|
D----------------------------|

D(Guitar 2)
E---------------------------|
B---------------------------|
G-----4-2-4^---545555442222-|
D---2--------1--------------|
A---------------------------|
D---------------------------|

E(Guitar 2)
E--------------------------------|
B--------------------------------|
G-----4-2-4---5-4-5-3-8-7-8-7^/0-|
D---2-------1--------------------|
A--------------------------------|
D--------------------------------|

F(Guitar 1)
E--------------------------------------------------------|
B--------------------------------------------------------|
G--------------------------------------------------------|
D--000000-8/7-7/8-8/7-7/5-000000-8/7-7/10-8/7-7/6-000000-|
A--000000-6/5-5/6-6/5-5/3-000000-6/5-5/8--6/5-5/3-000000-|
D--000000-----------------000000------------------000000-|
   pm....                 pm....                  pm....

G(Guitar 1)
E--------------------------------------------------|
B--------------------------------------------------|
G--------------------------------------------------|
D--000000-8/7-7/8-8/7-7/5-000000-8/3-3-10-10-10-10-|
A--000000-6/5-5/6-6/5-5/3-000000-6/1-1-8--8--8--8--|
D--000000-----------------000000-------------------|
   pm....                 pm....

H(A) (Guitar 1)
E--------------------------------------------------|
B--------------------------------------------------|
G-------------5----0-1-0------10-8-7-8-7.8.7-8-5---|
D------------------------3~/0----------------------|
A------------------------------------------------3-|
D--------------------------------------------------|

H(B) (Guitar 2)
E--------------------------------------------------|
B--------------------------------------------------|
G--------------------------------------------------|
D-----------1-5----5-6-5-3~/0--8-6-5-6-5.6.5-6-3---|
A--3----3-3--------------------------------------3-|
D--------------------------------------------------|

I(A) (Guitar 1)
E--------------------------------------------------|
B------------------------------6-4-3-4-3.4.3-4-1---|
G-------------5----0-1-0---------------------------|
D------------------------3~/0----------------------|
A------------------------------------------------3-|
D--------------------------------------------------|

I(B) (Guitar 2)
E--------------------------------------------------|
B--------------------------------------------------|
G--------------------------------------------------|
D-----------1-5----5-6-5-3~/0--8-6-5-6-5.6.5-6-3---|
A--3----3-3--------------------------------------3-|
D--------------------------------------------------|

J(Guitar 1)
E------------------------|
B------------------------|
G------------------------|
D--5/0-------------------|
A--5/0--0-0-000--0-0-000-|
D--5/0--0-0-000--0-0-000-|

K(Guitar 2)
E-----------------------------------|
B-----------------------------------|
G-----------------------------------|
D---------------------------7-------|
A--5-8-7-8-10-8-7-8-5-8-7-8---8-7-8-|
D-----------------------------------|

L(Guitar 2)
E--------------------------------------|
B--------------------------------------|
G--------------------------------------|
D-------------------10-8-7-5-12-10-8-7-|
A--5-8-7-8-10-8-7-8--------------------|
D--------------------------------------|

M
E-------|
B-------|
G-------|
D--10/0-|
A--10/0-|
D--10/0-|

f**K, i cANT sEEM tO fIGURE oUT tHE sOLO...
iT's sO f**KIN hARD mAN.





Comments


Popular Cradle Of Filth tabs & chords
Desire In Violent Overture Bass Tabs
Medusa And Hemlock Bass Tabs
Beauty Slept In Bodom Tabs
Gabrielle Tabs
Her Ghost In The Fog 5 Tabs
Hurt And Virtue 1 Tabs
Lord Abortion 2 Tabs
Malice Through The Looking Glass Tabs
Queen Of Winter, Throned Tabs
Under Huntress Moon 1 Tabs


Song lyrics



↑ Back to top | Tablatures and chords are parodies/interpretations of the original songs. You may use it for private study, scholarship, research or language learning purposes only
© 2014 AZChords.com Contact us | Privacy policy | DMCA | Add/correct tabs | Request tabs | Top 50 tabs