>
 >
Summer Dying Fast

Summer Dying Fast Guitar Tabs

Cradle Of Filth - Summer Dying Fast chords, tabs, tablatures, lyrics

Guitar lessons | Add/correct | Request | Top 50 tabs Artists:  A B C D E F G H I J K L M N O P Q R S T U V W X Y Z 0-9

Summer Dying Fast Guitar Tabs – Cradle Of Filth

CD, Sheet music, Poster

Do you like Summer Dying Fast? Share with your friends now
Bass TabsTabsTabs v2
Summer dying fast
-------------------
By Cradle of filth





Notation:
.. = palm mute
th = thrill
v~ = vibrato with vibraslam
~ = vibrato with finger
h = hammer-on
 > = release
X = dump
t = tap
/ = slide up
\ = slide down
= = Hold

Note:
Tune down one whole step!! (D,G,C,F,A,d)
This is wonderful song and you can find original version from Cof's first
album "The principle of evil made flesh".

_____________________________________________

Intro:
Drums only (***ing great beat!)


Riff 1 Cd time: 0.11
Guitar 1
Play this four times

|---------------------------------------------------------|
|---------------------------------------------------------|
|---------------------------------------------------------|
|-99999999-10101010-99-88888888-77777777-8888-77-44444444-|
|-77777777-8-8-8-8--77-66666666-55555555-6666-55-66666666-|
|---------------------------------------------------------|

I think that guitar 2 plays single notes


Riff 2
Guitar 1 Cd time: 0.31
Play this ten times

|------------------------------------------------|
|------------------------------------------------|
|------------------------------9999-10101010-9999|
|------9999-10101010-9999-7777-------------------|
|-7777-------------------------------------------|
|------------------------------------------------|


Guitar 2 Cd time: 0.33
Starts on second time
Nine times

|------------------------------------------|
|------------------------------------------|
|------------------------------------------|
|---------------------------2222-3333-2222-|
|-------2222-3333-2222-0000----------------|
|-\0000------------------------------------|



Break for guitar


Riff 3 Cd time: 1.05
Twice

|-------------------|
|-------------------|
|-------------------|
|-9--------8--------|
|-7--------6--------|
|-------------------|


Riff 4 Cd time: 1.25
Once

|----------------------------------------------------------------------------|
|----------------------------------------------------------------------------|
|----------------------------------------------------------------------------|
|------9999-10101010-77-1010------9999-10101010-77-1010------8888-9999-66-99-|
|-7777-----------------------7777-----------------------6666-----------------|
|----------------------------------------------------------------------------|

|----------------------|
|----------------------|
|----------------------|
|------8888-9999-66-99-|
|-6666-----------------|
|----------------------|


Riff 5 Cd time: 1.36
Play this Twice

|-------------------------------------|
|-------------------------------------|
|-------------------------------------|
|-9--------8--------7--------9--------|
|-7--------6--------5--------7--------|
|-------------------------------------|


Riff 2
Guitar 1 Cd time: 1.56
Play this ten times

|-------------------------------------------------|
|-------------------------------------------------|
|------------------------------9999-10101010-9999-|
|------9999-10101010-9999-7777--------------------|
|-7777--------------------------------------------|
|-------------------------------------------------|


Guitar 2 Cd time: 1.58
Starts on second time
Nine times

|------ -----------------------------------|
|----- ------------------------------------|
|---- -------------------------------------|
|--- -----------------------2222-3333-2222-|
|-- ----2222-3333-2222-0000----------------|
|-/0000------------------------------------|


Little break for guitar


Riff 5 Cd time: 2.30
Play this once

|-------------------------------------|
|-------------------------------------|
|-------------------------------------|
|-9--------8--------7--------9--------|
|-7--------6--------5--------7--------|
|-------------------------------------|


Riff 6a Cd time: 2.40
Six times

|-------------------------------|
|-------------------------------|
|-------------------------------|
|-------------------------------|
|-2-5\4/5--4--3--2-5\4/5--4-6---|
|-0-3\2/3--2--1--0-3\2/3--2-4---|


Riff 6b Cd time: 3.01
Four times

|-------------------------------|
|-------------------------------|
|-------------------------------|
|-------------------------------|
|-------------------------------|
|-0--2-3---2--1--0--2-3---2-4---|


Solo Cd time: 3.16
Guitar 1
Listen rhythm from the record

|----------------------------------------------------------------------------------|
|--------------------------------------------------------10----10-12--13-12--13-12-|
|------------------------------------------9----12-11-12---------------------------|
|----------------------------------------------------------------------------------|
|-7----10--9-------10--9------10--9------------------------------------------------|
|------------10----------8----------10--8------------------------------------------|


Guitar 2
I know: The timing isn't right!!!!

|-------------------------------------------------------------------------|
|-------------------------------------------------------------------------|
|-------------------------------------------------------------------------|
|-------------------------------------------------------------------------|
|-7----------------------------------7------------------------------------|
|----------10--------8--------10--8------------10--------8--------10--12--|


Guitar 1

|----------------------------------12----15--14-14---15--14-12---15--14-12---10----|
|-13-12-10-12-10----10-------------------------------------------------------------|
|----------------12----12-11-12-11-(9)---------------------------------------------|
|----------------------------------------------------------------------------------|
|----------------------------------------------------------------------------------|
|----------------------------------------------------------------------------------|


Guitar 2
And the timing is still from a**

|-----------------------------------------------------------------------------------|
|----------------10----10-12--13-12--13-12-13-12-10-12-10----10---------------------|
|-9----12--11-12------------------------------------------12----12-11-12-11-9---Fade|
|-------------------------------------------------------------------------------out-|
|-----------------------------------------------------------------------------------|
|-----------------------------------------------------------------------------------|


Guitar 1


|-12----15--14-12--------------------------------------------------------------|
|--------------------12--13-12--13-12-13-12-10-12-10----10---------------------|
|----------------------------------------------------12----12-11-12-11-9---Fade|
|--------------------------------------------------------------------------out-|
|------------------------------------------------------------------------------|
|------------------------------------------------------------------------------|





Comments


Popular Cradle Of Filth tabs & chords
Gilded Cunt Bass Tabs
Nocturnal Sumpremacy Bass Tabs
Nymphetamine 4 Bass Tabs
Thank God For The Suffering 3 Bass Tabs
Beast Of Extermination Tabs
Beyond Eleventh Hour Tabs
Ebony Dressed For Sunset Tabs
Hallowed Be Thy Name 4 Tabs
Lord Abortion 2 Tabs
Temptation 3 Tabs


Song lyrics



↑ Back to top | Tablatures and chords are parodies/interpretations of the original songs. You may use it for private study, scholarship, research or language learning purposes only
© 2014 AZChords.com Contact us | Privacy policy | DMCA | Add/correct tabs | Request tabs | Top 50 tabs