» » »

Cradle Of Filth, Suicide & Other Comforts Bass tabs (ver.1)

Artists:  A B C D E F G H I J K L M N O P Q R S T U V W X Y Z # 

Suicide & Other Comforts Bass tabs (ver.1)

Cradle Of Filth Tabs
 Rating:
4/5 (4 votes)
Suicide & Other Comforts lessons Tabs too difficult? Try these video lessons and learn fast
                tune down

F||------------------|------------------|------------------|------------------|
C||------------------|------------------|------------------|------------------|
G||------------------|------------------|------------------|------------------|
D||------------------|------------------|------------------|------------------|
A||------------------|------------------|------------------|------------------|


                                                                            
------------------|------------------|------------------|------------------|
------------------|------------------|------------------|------------------|
------------------|------------------|------------------|------------------|
------------------|------------------|------------------|------------------|
------------------|------------------|------------------|------------------|


                                                                            
------------------|------------------|------------------|------------------|
------------------|------------------|------------------|------------------|
------------------|------------------|------------------|------------------|
------------------|------------------|------------------|------------------|
------------------|------------------|------------------|------------------|


                                                                                
-------------------|-------------------|-------------------|-------------------|
-------------------|-------------------|-------------------|-------------------|
-------------------|--1----------------|-------------------|--1----------------|
-------------------|-------------------|-------------------|-------------------|
--3----------------|-------------------|--3----------------|-------------------|


                                                      
--------------------------|--------------------------|
--------------------------|--------------------------|
--------------------------|--------------------------|
--3--3--3--3--3--3--3--3--|--1--1--1--1--------------|
--------------------------|--------------3--3--3--3--|


                                                      
--------------------------|--------------------------|
--------------------------|--------------------------|
--7--7--7--7--7--7--7--7--|--6--6--6--6--6--6--6--6--|
--------------------------|--------------------------|
--------------------------|--------------------------|


                                                      
--------------------------|--------------------------|
--------------------------|--------------------------|
--------------------------|--------------------------|
--8--8--8--8--8--8--8--8--|--8--8--8--8--4--4--4--4--|
--------------------------|--------------------------|


                                                      
--------------------------|--------------------------|
--------------------------|--------------------------|
--7--7--7--7--7--7--7--7--|--6--6--6--6--6--6--6--6--|
--------------------------|--------------------------|
--------------------------|--------------------------|


                                                                          
--------------------------|--------------------------|-------------------|
--------------------------|--------------------------|-------------------|
--------------------------|--------------------------|-------------------|
--8--8--8--8--8--8--8--8--|--8--8--8--8--4--4--4--4--|-------------------|
--------------------------|--------------------------|--3----------------|


                                                            
-------------------|-------------------|-------------------|
-------------------|-------------------|-------------------|
--1----------------|-------------------|--1----------------|
-------------------|-------------------|-------------------|
-------------------|--3----------------|-------------------|


                                                                          
--------------------------|--------------------------|-------------------|
--------------------------|--------------------------|-------------------|
--------------------------|--------------------------|-------------------|
--3--3--3--3--3--3--3--3--|--1--1--1--1--------------|-------------------|
--------------------------|--------------3--3--3--3--|--3----------------|


                                                            
-------------------|-------------------|-------------------|
-------------------|-------------------|-------------------|
--1----------------|-------------------|--1----------------|
-------------------|-------------------|-------------------|
-------------------|--3----------------|-------------------|


                                                      
--------------------------|--------------------------|
--------------------------|--------------------------|
--------------------------|--------------------------|
--3--3--3--3--3--3--3--3--|--1--1--1--1--------------|
--------------------------|--------------3--3--3--3--|


                                                      
--------------------------|--------------------------|
--------------------------|--------------------------|
--7--7--7--7--7--7--7--7--|--6--6--6--6--6--6--6--6--|
--------------------------|--------------------------|
--------------------------|--------------------------|


                                                      
--------------------------|--------------------------|
--------------------------|--------------------------|
--------------------------|--------------------------|
--8--8--8--8--8--8--8--8--|--8--8--8--8--4--4--4--4--|
--------------------------|--------------------------|


                                                      
--------------------------|--------------------------|
--------------------------|--------------------------|
--7--7--7--7--7--7--7--7--|--6--6--6--6--6--6--6--6--|
--------------------------|--------------------------|
--------------------------|--------------------------|


                                                                           
--------------------------|--------------------------|--------------------|
--------------------------|--------------------------|--------------------|
--------------------------|--------------------------|--------------------|
--8--8--8--8--8--8--8--8--|--8--8--8--8--4--4--4--4--|--4---4-------------|
--------------------------|--------------------------|--------------------|


                                           
---------------------|--------------------|
---------------------|--------------------|
---------------------|--------------------|
--4---4---4----------|--3--------0--------|
---------------------|--------------------|


                                          
-----------------------------------------|
-----------------------------------------|
-----------------------------------------|
--4-4-4-4-4-4-4-4-4-4-4-4-4-7--6-7--6-7--|
-----------------------------------------|


                                          
-----------------------------------------|
-----------------------------------------|
-----------------------------------------|
--4-4-4-4-4-4-4-4-4-4-4-4-4-7--6-7--6-7--|
-----------------------------------------|


                                                               
-----------------------------------------|--------------------|
-----------------------------------------|--------------------|
-----------------------------------------|--------------------|
--4-4-4-4-4-4-4-4-4-4-4-4-4-7--6-7--6-7--|--3--------0--------|
-----------------------------------------|--------------------|


                                          
-----------------------------------------|
-----------------------------------------|
-----------------------------------------|
--4-4-4-4-4-4-4-4-4-4-4-4-4-7--6-7--6-7--|
-----------------------------------------|


                                          
-----------------------------------------|
-----------------------------------------|
-----------------------------------------|
--4-4-4-4-4-4-4-4-4-4-4-4-4-7--6-7--6-7--|
-----------------------------------------|


                                                               
-----------------------------------------|--------------------|
-----------------------------------------|--------------------|
-----------------------------------------|--------------------|
--4-4-4-4-4-4-4-4-4-4-4-4-4-7--6-7--6-7--|--3--------0--------|
-----------------------------------------|--------------------|


                                                                      
----------------------------------|----------------------------------|
----------------------------------|----------------------------------|
--4-4-4-4-4-4-4-4-4-4-4-4-4-4-4-4-|--0-0-0-0-0-0-0-0-0-0-0-0-7-7-7-7-|
----------------------------------|----------------------------------|
----------------------------------|----------------------------------|


                                                                      
----------------------------------|----------------------------------|
----------------------------------|----------------------------------|
--6-6-6-6-6-6-6-6-6-6-6-6-6-6-6-6-|--5-5-5-5-5-5-5-5-7-7-7-7-7-7-7-7-|
----------------------------------|----------------------------------|
----------------------------------|----------------------------------|


                                                                      
----------------------------------|----------------------------------|
----------------------------------|----------------------------------|
--4-4-4-4-4-4-4-4-4-4-4-4-4-4-4-4-|--0-0-0-0-0-0-0-0-7-7-7-7-7-7-7-7-|
----------------------------------|----------------------------------|
----------------------------------|----------------------------------|


                                                                      
----------------------------------|----------------------------------|
----------------------------------|----------------------------------|
--6-6-6-6-6-6-6-6-6-6-6-6-6-6-6-6-|--5-5-5-5-5-5-5-5-7-7-7-7-7-7-7-7-|
----------------------------------|----------------------------------|
----------------------------------|----------------------------------|


                                          
-----------------------------------------|
-----------------------------------------|
-----------------------------------------|
--4-4-4-4-4-4-4-4-4-4-4-4-4-7--6-7--6-7--|
-----------------------------------------|


                                          
-----------------------------------------|
-----------------------------------------|
-----------------------------------------|
--4-4-4-4-4-4-4-4-4-4-4-4-4-7--6-7--6-7--|
-----------------------------------------|


                                                               
-----------------------------------------|--------------------|
-----------------------------------------|--------------------|
-----------------------------------------|--------------------|
--4-4-4-4-4-4-4-4-4-4-4-4-4-7--6-7--6-7--|--3--------0--------|
-----------------------------------------|--------------------|


                                          
-----------------------------------------|
-----------------------------------------|
-----------------------------------------|
--4-4-4-4-4-4-4-4-4-4-4-4-4-7--6-7--6-7--|
-----------------------------------------|


                                          
-----------------------------------------|
-----------------------------------------|
-----------------------------------------|
--4-4-4-4-4-4-4-4-4-4-4-4-4-7--6-7--6-7--|
-----------------------------------------|


                                                               
-----------------------------------------|--------------------|
-----------------------------------------|--------------------|
-----------------------------------------|--------------------|
--4-4-4-4-4-4-4-4-4-4-4-4-4-7--6-7--6-7--|--3--------0--------|
-----------------------------------------|--------------------|


                                                                      
----------------------------------|----------------------------------|
----------------------------------|----------------------------------|
----------------------------------|----------------------------------|
--5-5-5-5-5-5-5-5-0-0-0-0-0-0-0-0-|--5-5-5-5-5-5-5-5-1-1-1-1-3-3-1-1-|
----------------------------------|----------------------------------|


                                                                      
----------------------------------|----------------------------------|
----------------------------------|----------------------------------|
----------------------------------|----------------------------------|
--5-5-5-5-5-5-5-5-0-0-0-0-0-0-0-0-|--5-5-5-5-5-5-5-5-1-1-1-1-3-3-1-1-|
----------------------------------|----------------------------------|


                                                                      
----------------------------------|----------------------------------|
----------------------------------|----------------------------------|
----------------------------------|----------------------------------|
--5-5-5-5-5-5-5-5-0-0-0-0-0-0-0-0-|--5-5-5-5-5-5-5-5-1-1-1-1-3-3-1-1-|
----------------------------------|----------------------------------|


                                                                      
----------------------------------|----------------------------------|
----------------------------------|----------------------------------|
----------------------------------|----------------------------------|
--5-5-5-5-5-5-5-5-0-0-0-0-0-0-0-0-|--5-5-5-5-5-5-5-5-1-1-1-1-3-3-1-1-|
----------------------------------|----------------------------------|


                                                                      
----------------------------------|----------------------------------|
----------------------------------|----------------------------------|
----------------------------------|----------------------------------|
--0--0-0-0-0-0----3-3-3-3-2-2-2-2-|--0-0-0-0-3-3-3-3-3-3-3-3-2-2-2-2-|
----------------------------------|----------------------------------|


                                                                      
----------------------------------|----------------------------------|
----------------------------------|----------------------------------|
----------------------------------|----------------------------------|
--0--0-0-0-0-0----3-3-3-3-2-2-2-2-|--0-0-0-0-3-3-3-3-3-3-3-3-2-2-2-2-|
----------------------------------|----------------------------------|


                                                                      
----------------------------------|----------------------------------|
----------------------------------|----------------------------------|
----------------------------------|----------------------------------|
--2-2-2-2-2-2-2-2-5-5-5-5-4-4-4-4-|--2-2-2-2-5-5-5-5-5-5-5-5-4-4-4-4-|
----------------------------------|----------------------------------|


                                                                      
----------------------------------|----------------------------------|
----------------------------------|----------------------------------|
----------------------------------|----------------------------------|
--2--2-2-2-2-2----5-5-5-5-4-4-4-4-|--2-2-2-2-5-5-5-5-5-5-5-5-4-4-4-4-|
----------------------------------|----------------------------------|


                                          
-----------------------------------------|
-----------------------------------------|
-----------------------------------------|
--4-4-4-4-4-4-4-4-4-4-4-4-4-7--6-7--6-7--|
-----------------------------------------|


                                          
-----------------------------------------|
-----------------------------------------|
-----------------------------------------|
--4-4-4-4-4-4-4-4-4-4-4-4-4-7--6-7--6-7--|
-----------------------------------------|


                                                               
-----------------------------------------|--------------------|
-----------------------------------------|--------------------|
-----------------------------------------|--------------------|
--4-4-4-4-4-4-4-4-4-4-4-4-4-7--6-7--6-7--|--3--------0--------|
-----------------------------------------|--------------------|


                                          
-----------------------------------------|
-----------------------------------------|
-----------------------------------------|
--4-4-4-4-4-4-4-4-4-4-4-4-4-7--6-7--6-7--|
-----------------------------------------|


                                          
-----------------------------------------|
-----------------------------------------|
-----------------------------------------|
--4-4-4-4-4-4-4-4-4-4-4-4-4-7--6-7--6-7--|
-----------------------------------------|


                                                               
-----------------------------------------|--------------------|
-----------------------------------------|--------------------|
-----------------------------------------|--------------------|
--4-4-4-4-4-4-4-4-4-4-4-4-4-7--6-7--6-7--|--3--------0--------|
-----------------------------------------|--------------------|


                                                                               
-------------------|---------------------------------|------------------------|
-------------------|---------------------------------|------------------------|
-------------------|-----------7-7-7-7-7--7-7-7-7-7--|--6------6-6-6-6-6------|
--4----------------|--5------------------------------|------------------------|
-------------------|---------------------------------|------------------------|


                                                                           
--------------------|-------------------|---------------------------------|
--------------------|-------------------|---------------------------------|
--5--------7--------|-------------------|-----------7-7-7-7-7--7-7-7-7-7--|
--------------------|--4----------------|--5------------------------------|
--------------------|-------------------|---------------------------------|


                                                                         
------------------------|--------------------|--------------------------|
------------------------|--------------------|--------------------------|
--6------6-6-6-6-6------|--5--------7--------|--4--4--4--4--4--4--4--4--|
------------------------|--------------------|--------------------------|
------------------------|--------------------|--------------------------|


                                                                  
------------------------------------|----------------------------|
------------------------------------|----------------------------|
--------------7-7-7-7-7--7-7-7-7-7--|--6--6--6--6-6-6-6-6--6--6--|
--5--5--5--5------------------------|----------------------------|
------------------------------------|----------------------------|


                                                      
--------------------------|--------------------------|
--------------------------|--------------------------|
--5--5--5--5--7--7--7--7--|--4--4--4--4--4--4--4--4--|
--------------------------|--------------------------|
--------------------------|--------------------------|


                                                                  
------------------------------------|----------------------------|
------------------------------------|----------------------------|
--------------7-7-7-7-7--7-7-7-7-7--|--6--6--6--6-6-6-6-6--6--6--|
--5--5--5--5------------------------|----------------------------|
------------------------------------|----------------------------|


                                                      
--------------------------|--------------------------|
--------------------------|--------------------------|
--5--5--5--5--7--7--7--7--|--7--7--7--7--7--7--7--7--|
--------------------------|--------------------------|
--------------------------|--------------------------|


                                                      
--------------------------|--------------------------|
--------------------------|--------------------------|
--6--6--6--6--6--6--6--6--|--------------------------|
--------------------------|--8--8--8--8--8--8--8--8--|
--------------------------|--------------------------|


                                                      
--------------------------|--------------------------|
--------------------------|--------------------------|
--------------------------|--7--7--7--7--7--7--7--7--|
--8--8--8--8--4--4--4--4--|--------------------------|
--------------------------|--------------------------|


                                                      
--------------------------|--------------------------|
--------------------------|--------------------------|
--6--6--6--6--6--6--6--6--|--------------------------|
--------------------------|--8--8--8--8--8--8--8--8--|
--------------------------|--------------------------|


                                                                   
--------------------------|-------------------|-------------------|
--------------------------|-------------------|-------------------|
--------------------------|--0----------------|-------------------|
--8--8--8--8--4--4--4--4--|-------------------|--1----------------|
--------------------------|-------------------|-------------------|


                                                                    
-------------------|--------------------|--------------------------|
-------------------|--------------------|--------------------------|
--5----------------|--1-----------------|--0--0--0--0--0--0--0--0--|
-------------------|-----------4--------|--------------------------|
-------------------|--------------------|--------------------------|


                                                      
--------------------------|--------------------------|
--------------------------|--------------------------|
--------------------------|--5--5--5--5--5--5--5--5--|
--1--1--1--1--1--1--1--1--|--------------------------|
--------------------------|--------------------------|


                                                      
--------------------------|--------------------------|
--------------------------|--------------------------|
--------------------------|--0--0--0--0--0--0--0--0--|
--6--6--6--6--4--4--4--4--|--------------------------|
--------------------------|--------------------------|


                                                      
--------------------------|--------------------------|
--------------------------|--------------------------|
--------------------------|--5--5--5--5--5--5--5--5--|
--1--1--1--1--1--1--1--1--|--------------------------|
--------------------------|--------------------------|


                                                              
--------------------------|----------------------------------|
--------------------------|----------------------------------|
--------------------------|----------------------------------|
--6--6--6--6--4--4--4--4--|--5-5-5-5-5-5-5-5-5-5-5-5-5-5-5-5-|
--------------------------|----------------------------------|


                                                                      
----------------------------------|----------------------------------|
----------------------------------|----------------------------------|
----------------------------------|--5-5-5-5-5-5-5-5-5-5-5-5-5-5-5-5-|
--1-1-1-1-1-1-1-1-1-1-1-1-1-1-1-1-|----------------------------------|
----------------------------------|----------------------------------|


                                                                      
----------------------------------|----------------------------------|
----------------------------------|----------------------------------|
----------------------------------|----------------------------------|
--6-6-6-6-6-6-6-6-4-4-4-4-4-4-4-4-|--5-5-5-5-5-5-5-5-5-5-5-5-5-5-5-5-|
----------------------------------|----------------------------------|


                                                                      
----------------------------------|----------------------------------|
----------------------------------|----------------------------------|
----------------------------------|--5-5-5-5-5-5-5-5-5-5-5-5-5-5-5-5-|
--1-1-1-1-1-1-1-1-1-1-1-1-1-1-1-1-|----------------------------------|
----------------------------------|----------------------------------|


                                                              
----------------------------------|--------------------------|
----------------------------------|--------------------------|
----------------------------------|--0--0--0--0--0--0--0--0--|
--6-6-6-6-6-6-6-6-4-4-4-4-4-4-4-4-|--------------------------|
----------------------------------|--------------------------|


                                                      
--------------------------|--------------------------|
--------------------------|--------------------------|
--------------------------|--5--5--5--5--5--5--5--5--|
--1--1--1--1--1--1--1--1--|--------------------------|
--------------------------|--------------------------|


                                                      
--------------------------|--------------------------|
--------------------------|--------------------------|
--------------------------|--0--0--0--0--0--0--0--0--|
--6--6--6--6--4--4--4--4--|--------------------------|
--------------------------|--------------------------|


                                                      
--------------------------|--------------------------|
--------------------------|--------------------------|
--------------------------|--5--5--5--5--5--5--5--5--|
--1--1--1--1--1--1--1--1--|--------------------------|
--------------------------|--------------------------|


                                                              
--------------------------|----------------------------------|
--------------------------|----------------------------------|
--------------------------|----------------------------------|
--6--6--6--6--4--4--4--4--|--5-5-5-5-5-5-5-5-5-5-5-5-5-5-5-5-|
--------------------------|----------------------------------|


                                                                      
----------------------------------|----------------------------------|
----------------------------------|----------------------------------|
----------------------------------|--5-5-5-5-5-5-5-5-5-5-5-5-5-5-5-5-|
--1-1-1-1-1-1-1-1-1-1-1-1-1-1-1-1-|----------------------------------|
----------------------------------|----------------------------------|


                                                                      
----------------------------------|----------------------------------|
----------------------------------|----------------------------------|
----------------------------------|----------------------------------|
--6-6-6-6-6-6-6-6-4-4-4-4-4-4-4-4-|--5-5-5-5-5-5-5-5-5-5-5-5-5-5-5-5-|
----------------------------------|----------------------------------|


                                                                      
----------------------------------|----------------------------------|
----------------------------------|----------------------------------|
----------------------------------|--5-5-5-5-5-5-5-5-5-5-5-5-5-5-5-5-|
--1-1-1-1-1-1-1-1-1-1-1-1-1-1-1-1-|----------------------------------|
----------------------------------|----------------------------------|


                                                                      
----------------------------------|----------------------------------|
----------------------------------|----------------------------------|
----------------------------------|----------------------------------|
--6-6-6-6-6-6-6-6-4-4-4-4-4-4-4-4-|--5-5-5-5-5-5-5-5-5-5-5-5-5-5-5-5-|
----------------------------------|----------------------------------|


                                                                      
----------------------------------|----------------------------------|
----------------------------------|----------------------------------|
----------------------------------|--5-5-5-5-5-5-5-5-5-5-5-5-5-5-5-5-|
--1-1-1-1-1-1-1-1-1-1-1-1-1-1-1-1-|----------------------------------|
----------------------------------|----------------------------------|


                                    
----------------------------------||
----------------------------------||
----------------------------------||
--6-6-6-6-6-6-6-6-4-4-4-4-4-4-4-4-||
----------------------------------||
            
Submit corrections

comments powered by Disqus
↑ Back to top | Cradle Of Filth Bass for Suicide & Other Comforts. Lyrics for acoustic guitar and electric guitar. Tablatures and chords are parodies/interpretations of the original songs. You may use it for private study, scholarship, research or language learning purposes only