» » »

Cradle Of Filth, Suicide & Other Comforts Tabs (ver.1)

Artists:  A B C D E F G H I J K L M N O P Q R S T U V W X Y Z # 

Suicide & Other Comforts Tabs (ver.1)

Cradle Of Filth Tabs
Rating:
0/5 (0 votes)
Hard to play? Try these video lessons and learn fast.
                Tuning:	Down a whole step


Key board Intro

---5-----5------------5-----5----------------------|
---6--5---------------6--5-------------------------|
---7----------7-------7-----------7------4-----3---|
---7----------8-------7-----------8------5-----4---|
---5----------8-------5-----------8------5-----4---|
--------------6-------------------6------3-----2---|


Guitar Riff 1


---4...-----3....---|
---5...-----4....---|
---5...-----4....---|
---3...-----2....---|


Riff 2

--------------------------------------------------4---3---------------|
---4-3-------------4-3-------------4-3------------5---4---------------|
-6-----5-6-------6-----5-6-------6-----5-6--------5---4---------------|
-----------7-6-4-----------7-6-4-----------7-6-4--3---2---------------|


Riff 3

----------------------------|
----------------------------|
-4-4----------4-4-4----3----|
-5-5----------5-5-5----4----|
-5-5----------5-5-5----4----|
-3-3----------3-3-3----2----|


Riff 4
Fast, palm mute open d string

6------6------9------9------9------6------6------9------9------9------
6------6------9------9------9------6------6------9------9------9------
4-0...-4-0...-7-0...-7-0...-7-0...-4-0...-4-0...-7-0...-7-0...-7-0...-


-----------------------------------|
-----------------------------------|
-------------------------------4-3-|
6------6------9------9------9--5-4-|
6------6------9------9------9--5-4-|
4-0...-4-0...-7-0...-7-0...-7--3-2-|

Haven't finished this tab yet, but this should do as a start
            

comments powered by Disqus
↑ Back to top | Cradle Of Filth Tabs for Suicide & Other Comforts. Lyrics for acoustic guitar and electric guitar. Tablatures and chords are parodies/interpretations of the original songs. You may use it for private study, scholarship, research or language learning purposes only