» » »

Cradle Of Filth, Dusk And Her Embrace Tabs (ver.3)

Artists:  A B C D E F G H I J K L M N O P Q R S T U V W X Y Z # 

Dusk And Her Embrace Tabs (ver.3)

Cradle Of Filth Tabs
 Rating:
4/5 (4 votes)
Dusk And Her Embrace lessons Tabs too difficult? Try these video lessons and learn fast
                Cradle of Filth
Dusk and Her Embrace

top E down 1/2 a step

/=slide
p=pull of
~=strum a lot of times


Intro:(0.18)
 |--------------------|--5-7-8-7--  
 |-3------3-1-3/6-----|-----------
 |--3-2-0-------------|-----------
 |--------------------|-----------
 |--------------------|-----------
 |--------------------|-----------
  x3                  |3rd time add
                        The backing guitar plays the first part intead of adding this bit.


Riff 1:(0.26)
 |-----------------------------------
 |-3-----3-1-3/6------3-----3-1-3-1--
 |--3-2-0--------------3-2-0---------
 |-----------------------------------
 |-----------------------------------
 |-----------------------------------


Riff 2:(0.44)
 |---------------------------------------
 |---------------------------------------
 |-0020-023-332-232-----0020-023-335-532-
 |---------------------------------------
 |---------------------------------------
 |---------------------------------------
 this aint right but it sounds good, i'm still workin on this bit

Riff 3:(1.11)
 |----------------                  |--------------------
 |----------------                  |--------------------
 |-875-578-32350--  or you can play |--------------------
 |----------------                  |--------------------
 |----------------                  |-653-357-1013-------
 |----------------                  |-------------3------


Riff 4:(1.18)(4.14)
 |-----|----------|------
 |-----|----------|------
 |-----|----------|------
 |-100-|-3--------|------
 |-----|--111-000-|-3~---
 |-----|----------|---3~-
 xa lot| x a lot  |


Riff 4:cont..
 |------------------
 |------------------
 |------------------
 |-1~0~-------------
 |-----3~56-1~0~1~3~-
 |----------------3~    watch your timing on this riff, its a bit off beat.


Riff 5:(1.50)
 |----------
 |----------
 |-7~6~3~2~-
 |-7~6~3~2~-
 |-5~4~1~0~-
 |----------


Riff 6:(2.06)
 |------
 |------
 |-5~6~-
 |-5~6~-
 |-3~4~-
 |------


Riff 7:(2.22)
 |---------|-----------------------|---------|--------------------
 |---------|-----------------------|---------|--------------------
 |-9-8-6-5-|-9-8-9-11-12-11-9-8----|---------|--------------------
 |-9-8-6-5-|-9-8-9-11-12-11-9-8----|-8-7-5-4-|-8-7-8-10-11-10-8-7-
 |-7-6-4-3-|-7-6-7--9-10--9-7-6----|-8-7-5-4-|-8-7-8-10-11-10-8-7-
 |---------|-----------------------|-6-5-3-2-|-6-5-6--8--9--8-6-5-
  x2       |  then add             |  x2     |  then add


Riff 8:(2.47)(3.21)
 |---------------------------------
 |-----------------------6~4~3~4~--
 |-3-5-5-6-5-5---3-5-6-5-----------
 |-5-5-5-5-5-5---5-5-5-5-----------
 |-3-3-3-3-3-3---3-3-3-3-----------
 |---------------------------------


Riff 9:(3.03)
 |----------------------------
 |----------------------------
 |----------------------------
 |----------------------------
 |----666-555-333---333-555---
 |-333-----------666-------666
constant up and down strumming here

then go back to Riff 8 and 4

Riff 10:(4.45)
 |-000-7p00-8p00-10p00--------
 |----------------------------
 |----------------------------
 |----------------------------
 |----------------------------
 |----------------------------
  Very Fast


Riff 11:(4.50)
 |---------------------------
 |---------------------------
 |-7--14-12-9--10-9-7--------
 |-7--14-12-9--10-9-7--------
 |-5--12-10-7---8-7-5--------
 |---------------------------


Riff 12:(5.08)
 |---------------
 |---------------
 |-7-8-7-6-7--2--
 |-7-8-7-6-7--2--
 |-5-6-5-4-5--0--
 |---------------
This bits a bit hard to hear because of the heavy bass over it.


Riff 13:(5.50)
 |----------
 |----------
 |-7~8~7~2~-
 |-7~8~7~2~-
 |-5~6~5~0~-
 |----------
            
Submit corrections

comments powered by Disqus
↑ Back to top | Cradle Of Filth Tabs for Dusk And Her Embrace. Lyrics for acoustic guitar and electric guitar. Tablatures and chords are parodies/interpretations of the original songs. You may use it for private study, scholarship, research or language learning purposes only