>
 >
Beyond The Eleventh Hour

Beyond The Eleventh Hour Guitar Tabs

Cradle Of Filth - Beyond The Eleventh Hour chords, tabs, tablatures, lyrics

Guitar lessons | Add/correct | Request | Top 50 tabs Artists:  A B C D E F G H I J K L M N O P Q R S T U V W X Y Z 0-9

Beyond The Eleventh Hour Guitar Tabs – Cradle Of Filth

CD, Sheet music, Poster

Do you like Beyond The Eleventh Hour? Share with your friends now
Tabs
			     BEYOND ELEVENTH HOUR - Cradle of Filth

Tuning: D Standard
Tempo: 190.5


Intro x2:
riff 1 x2                                      1st repeat    2nd repeat
D|--------------------------------------------|-------------|-------------|
A|--------------------------------------------|-------------|-------------|
F|--------------------------------------------|-------------|-------------|
C|--------------------------------------------|-------------|-------------|
G|-6-----6-----6--6--6----------6-----6-----6-|-4--4--7--7--|-4--4--5--5--|
D|-4-44444-44444--4--4--5-4-3-4-4-44444-44444-|-2--2--5--5--|-2--2--3--3--|
PM   ____  ____                   ____  ____

riff 2 x2                                      1st repeat    2nd repeat
D|--------------------------------------------|-------------|--------------|
A|--------------------------------------------|-------------|--------------|
F|--------------------------------------------|-------------|--------------|
C|--------------------------------------------|-------------|--------------|
G|-4-----4-----4--4--4----------4-----4-----4-|-2--2--5--5--|-2--2--5--5---|
D|-2-22222-22222--2--2--3-2-1-2-2-22222-22222-|-0--0--3--3--|-0--0--3--3---|
PM   ____  ____                   ____  ____

Chorus x2:
Guitar 1
D|--------------------------------|---------------------------------------|
A|--------------------------------|---------------------------------------|
F|--------------------------------|---------------------------------------|
C|--------------------------------|---------------------------------------|
G|10101010101010101010101010101010|10101010101010101010101010101010-------|
D|-8-8-8-8-8-8-8-8-8-8-8-8-8-8-8-8|-8-8-8-8-8-8-8-8-8-8-8-8-8-8-8-8-------|
                                                                          |
Guitar 2                                                                  |
D|--------------------------------|---------------------------------------|
A|--------------------------------|---------------------------------------|
F|---------------8----------------|---------8-----------------------------|
C|-/10-------------------10-------|----------------10--------(10)\--------|
G|--------------------------------|---------------------------------------|
D|--------------------------------|---------------------------------------|

Guitar 1
D|--------------------------------|---------------------------------------|
A|--------------------------------|---------------------------------------|
F|--------------------------------|---------------------------------------|
C|--------------------------------|---------------------------------------|
G|-7-7-7-7-7-7-7-7-7-7-7-7-7-7-7-7|-7-7-7-7-7-7-7-7-7-7-7-7-7-7-7-7-------|
D|-5-5-5-5-5-5-5-5-5-5-5-5-5-5-5-5|-5-5-5-5-5-5-5-5-5-5-5-5-5-5-5-5-------|
                                                                          |
Guitar 2                                                                  |
D|--------------------------------|---------------------------------------|
A|--------------------------------|---------------------------------------|
F|---------------5----------------|---------5-----------------------------|
C|-\7---------------------7-------|-------------------7-------------------|
G|--------------------------------|---------------------------------------|
D|--------------------------------|---------------------------------------|
                                                              
Guitar 1
D|--------------------------------|---------------------------------------|
A|--------------------------------|---------------------------------------|
F|--------------------------------|---------------------------------------|
C|--------------------------------|---------------------------------------|
G|10101010101010101010101010101010|10101010101010101010101010101010-------|
D|-8-8-8-8-8-8-8-8-8-8-8-8-8-8-8-8|-8-8-8-8-8-8-8-8-8-8-8-8-8-8-8-8-------|
                                                                          |
Guitar 2                                                                  |
D|--------------------------------|---------------------------------------|
A|--------------------------------|---------------------------------------|
F|---------------8----------------|---------8-----------------------------|
C|--10-------------------10-------|----------------10---------------------|
G|--------------------------------|---------------------------------------|
D|--------------------------------|---------------------------------------|

Guitar 1
D|--------------------------------|---------------------------------------|
A|--------------------------------|---------------------------------------|
F|--------------------------------|---------------------------------------|
C|-9-9-9-9-9-9-9-9-9-9-9-9-9-9-9-9|-8-8-8-8-8-8-8-8-8-8-8-8-8-8-8-8-------|
G|-7-7-7-7-7-7-7-7-7-7-7-7-7-7-7-7|-6-6-6-6-6-6-6-6-6-6-6-6-6-6-6-6-------|
D|--------------------------------|---------------------------------------|
                                                                          |
Guitar 2                                                                  |
D|--------------------------------|---------------------------------------|
A|---------------8----------------|---------------------------------------|
F|--9---------------------9-------|--8------------------------------------|
C|--------------------------------|---------------------------------------|
G|--------------------------------|---------------------------------------|
D|--------------------------------|---------------------------------------|

Verse x3:
D|------------------------------------------------------------------|
A|------------------------------------------------------------------|
F|------------------------------------------------------------------|
C|------------------------------------------------------------------|
G|---7---7-8-7---7---7---7-8-7---7---6---6-7-6---6---6---6-7-6---6--|
D|-5---5-------5---5---5-------5---4---4-------4---4---4-------4----|
PM _   _       _   _   _       _   _   _       _   _   _       _

D|-------------------------------------------------------------------------|
A|-------------------------------------------------------------------------|
F|-------------------------------------------------------------------------|
C|-------------------------------------------------------------------------|
G|--8---8-9-8---8---8---8-9-8---8---10---10-11-10---10---10---10-11-10---10|
D|6---6-------6---6---6-------6---8----8----------8----8----8----------8---|
PM_   _       _   _   _       _   _    _          _    _    _          _

Intro x1
Chorus x2
Verse x3
Chorus x2

Bridge A:
riff 1 x1
Guitar 1
D|-------------------------------------------------------------------------|
A|-------------------------------------------------------------------------|
F|-------------------------------------------------------------------------|
C|-9--------------------------9--------------------------------------------|
G|-7------------5------8------7------------8---------7--------5------------|
D|--------------3------6-------------------6-----7-6-5----5-4-3------------|
PM                                               ___      ___              |
                                                                           |
Guitar 2                                                                   |
D|-------------------------------------------------------------------------|
A|-------------------------------------------------------------------------|
F|-9-----------------------------------------------------------------------|
C|-------------------------------------------------------------------------|
G|-------------------------------------------------------------------------|
D|-------------------------------------------------------------------------|

riff 2 x2                      1st repeat  2nd repeat
D|----------------------------|-----------|------------------------------|
A|----------------------------|-----------|------------------------------|
F|----------------------------|-----------|------------------------------|
C|-----9------7------9-----10-|-----------|------------------------------|
G|-----7------5------7------8-|-5----8----|-8-------7-------5---2--------|
D|-000----000----000----000---|-3----6----|-6---7-6-5---5-4-3---0--------|
PM ___    ___    ___    ___                     ___     ___     .

Instrumental Break

Bridge B:
D|---------------------------------|----------|----------|-----------------|
A|---------------------------------|----------|----------|-----------------|
F|---------------------------------|----------|----------|-----------------|
C|---------------------------------|----------|-------9\-|-----------------|
G|-2222----2222----2222----2222----|----------|-------7\-|-2222----2222----|
D|-0000----0000----0000----0000----|----------|----------|-0000----0000----|
PM ____    ____    ____    ____                            ____    ____

D|----------------|---------|---------|------------------------------------|
A|----------------|---------|---------|------------------------------------|
F|----------------|---------|---------|------------------------------------|
C|----------------|---------|---------|------------------------------------|
G|2222----2222----|---------|---------|-2222----2222----2222----2222-------|
D|0000----0000----|---------|---------|-0000----0000----0000----0000-------|
PM____    ____                          ____    ____    ____    ____

D|------------------------------|--------|--------|
A|------------------------------|--------|--------|
F|------------------------------|--------|--------|
C|-----9------7------9-----10---|--------|--------|
G|-----7------5------7------8---|--------|--------|
D|-000----000----000----000-----|--------|--------|
PM ___    ___    ___    ___

Guitar 1 x4                 1st&3rd repeat 2nd&4th repeat
D|----------------------------|-----------|------------------------------|
A|----------------------------|-----------|------------------------------|
F|----------------------------|-----------|------------------------------|
C|-----9------7------9-----10-|-----------|------------------------------|
G|-----7------5------7------8-|-5----8----|-8-------7-------5---2--------|
D|-000----000----000----000---|-3----6----|-6---7-6-5---5-4-3---0--------|
PM ___    ___    ___    ___                     ___     ___     .

*on the third repeat, there is a second guitar that doubles over the first bit
Guitar 2
3rd repeat                       4th repeat
D|------------------------------|------------------------------------------|
A|------------------------------|------------------------------------------|
F|------------------------------|------------------------------------------|
C|------------------------------|-----9------7------9------10--------------|
G|-----7------5------7-------8--|------------------------------------------|
D|-000----000----000----000-----|-000----000----000----000-----------------|
PM ___    ___    ___    ___       ___    ___    ___    ___

Solo:
Guitar 1:
Intro x1

Guitar 2 (I have some of the solo figured out, as I figure out more I'll put up more)
D|-------------------------------------------------------------------------|
A|-------------------------------------------------------------------------|
F|--------------------------------------------------------12--/16---15-13--|
C|------------------9----8----12----14-15-14-12---12--14-------------------|
G|-8----11----10-----------------------------------------------------------|
D|-------------------------------------------------------------------------|
PM                                                ______

                              A couple of scales going up
D|---------------------------|---------------------------------------------|
A|---------------------------|---------------------------------------------|
F|-15-16-15-13-15------------|---------------------------------------------|
C|---------------------------|---------------------------------------------|
G|---------------------------|---------------------------------------------|
D|---------------------------|---------------------------------------------|

(unsure about this *waiting for correction*)
D|-------------------------------------------------------------------------|
A|-17--15--14--15--14--12--14--12--11--9-----------------------------------|
F|-------------------------------------------------------------------------|
C|-------------------------------------------------------------------------|
G|-------------------------------------------------------------------------|
D|-------------------------------------------------------------------------|

                                          still working on this bit
D|--------------------------------------|----------------------------------|
A|-12-0-0-8-0-8-0-8h10p8-0-8-0-7-0-8-10-|-8-0-0-7-0-8-0-5------------------|
F|--------------------------------------|----------------------------------|
C|--------------------------------------|----------------------------------|
G|--------------------------------------|----------------------------------|
D|--------------------------------------|----------------------------------|

also still checking this                        some scale going up
D|--------------------------------------------|----------------------------|
A|--------------------------------------------|----------------------------|
F|-11\9-9-11/12-12\11-11-11/14-14-14/15-15-17-|----------------------------|
C|--------------------------------------------|----------------------------|
G|--------------------------------------------|----------------------------|
D|--------------------------------------------|----------------------------|

Intro x1
Chorus x4

---------------------->>>
Entire Format:
Intro x2
Chorus x2
Verse x3
Intro x1
Chorus x2
Verse x3
Chorus x2
Bridge
Solo
Intro x1
Chorus x4

thanks for looking :)

************************************

| /   slide up
| \   slide down
| h   hammer-on
| p   pull-off
| ~   vibrato
| +   harmonic
| x   Mute note
| b   Bend
| pb  Pre-bend
| br  Bend release
| pbr Pre-bend release
| brb Bend release bend

************************************





Comments


Popular Cradle Of Filth tabs & chords
Heaven Torn Asunder Bass Tabs
An Enemy Led The Tempest 1 Tabs
Byronic Man 5 Tabs
Darkness Incarnate Tabs
Dusk And Her Embracelive Tabs
Funeral In Carpathia 1 Tabs
Honey And Sulphur Tabs
Mistress From The Sucking Pit Tabs
Nevermore 2 Tabs
The Black Goddess Rises 1 Tabs


Song lyrics



↑ Back to top | Tablatures and chords are parodies/interpretations of the original songs. You may use it for private study, scholarship, research or language learning purposes only
© 2014 AZChords.com Contact us | Privacy policy | DMCA | Add/correct tabs | Request tabs | Top 50 tabs