» » »

Cradle Of Filth, Beneath The Howling Stars Tabs (ver.3)

Artists:  A B C D E F G H I J K L M N O P Q R S T U V W X Y Z # 

Beneath The Howling Stars Tabs (ver.3)

Cradle Of Filth Tabs
Rating:
5/5 (2 votes)
Hard to play? Try these video lessons and learn fast.
                    ---------------------------------------------------------------------
Track: Beneath The Howling Stars, by Cradle of Filth

Transcribed: Nocturnal Heartbeat

Acknowledgement:

1. Tune down a whole step.
2. To figure out how many times a particular note or part needs to be played, please
listen to the song carefully.
3. Symbols used:

"..": play the note the appropriate number of times.
"h": hammer on
"p": pull off
"m": palm mute
"/": slide

Figure A:

---------------------------------------------------
---------------------------------------------------
--9..---5..---9..---8..---9..---12..---8..---7..---
--9..---5..---9..---8..---9..---12..---8..---7..---
--7..---3..---7..---6..---7..---10..---6..---5..---
---------------------------------------------------

Figure B:

---------------------------------------------------------
---------------------------------------------------------
--9..---5..---9..---8..---9..---12..---8..---7..---------
---------------------------------------------------------
---------------------------------------------------------
---------------------------------------------------------

Figure C:

----------------------------
----------------------------
--2-------------------------
--2------3------2------3----
--0------3------2------3----
---------1------0------1----

Figure D:

------------------------------------------------------------
------------------------------------------------------------
------------------------------------------------------------
--/7--10p9h10--9h10p9--7--------------10p9h10--9h10p9--7----
--------------------------------------7p5h7-----------------
------------------------------------------------------------
Figure E:

-----------------------------------------------------------------------
-----------------------------------------------------------------------
-------10p9h10--9h10p9--7----------------------------------------------
--/7---------------------------------7p5h7--5h7p5--4h5p4---2-----------
-----------------------------------------------------------------------
-----------------------------------------------------------------------

Figure F:

--------------------------------------------------------------------------------------------
--------------------10p8h10--8h10p8-----------------------10p8h10--8h10p8-------------------
--10-(p7h10)------------------------------10--------------------------------------------10--
-----------------------------------------------------10p9h10--------------------------------
--------------------------------------------------------------------------------------------
--------------------------------------------------------------------------------------------

Figure G:

----------|---------------------------------------------------------------------------------------------
----------|---------------------------------------------------------------------------------------------
----------|---------------------------------------------------------------------------------------------
---9..----|---------------------------------------------------------------------------------------------
---7..----|-----10..--9..--7..--9..----------7..---9..--10..--9..--7..---------9..--7..-----------7..---
---0..----|--------------------------0..-------------------------------10..--------------10..-----------

-----------------------------------------------
-----------------------------------------------
-----------------------------------------------
-----------------------------------------------
---------7..-----------------------------------
---0..--------10..--8..--7..--8..--7..---------

--------------------------------------------------------------------------------------------------
--------------------------------------------------------------------------------------------------
--------------------------------------------------------------------------------------------------
--------------------------------------------------------------------------------------------------
--10..--9..--7..--9..--------7..---9..--10..--9..--7..---------9..--7..-----------7..-------------
----------------------0..-----------------------------10..-------------10..-----------------------

-----------------------------------------------------|---------
-----------------------------------------------------|---------
--9..------------------------------------------------|----2----
--9..----10..----9..----7/9--------------------------|----2----
--7..----10..----9..----7/9--------------------------|----0----
---------8-..----7..----5/7---10p7---8p7-------------|---------

Figure H:

--------------------------------------------
--------------------------------------------
---------------------9----------------------
---/7--6--7--9--10-----10--9--10--9--7--6---
--------------------------------------------
--------------------------------------------

Figure I:

----------------------------
----------------------------
---2--------------------4---
---2------2------3------4---
---0------2------3------2---
----------0------1----------

Figure J: play this four times

-----------------------
---/10--13-13--10-10---
-----------------------
-----------------------
-----------------------
-----------------------

Figure K:

-------------------------------------------------------
---------------5---------------------------------------
---5--4--5--------5-5---7--4-4--5--7---9--7--7--5--4---
-------------------------------------------------------
-------------------------------------------------------
-------------------------------------------------------

Figure L:

-------------------
-------------------
---5----2----4-----
---5----2----4-----
---3----0----2-----
-------------------
Figure M:

-------------------------------------12..--10..--------------------------------------------------
----------------------------------------------------13..--12..--10..-----------------------------
---4..----5..-----2..----4..--------------------------------------------12..--11..--12..---------
---4..----5..-----2..----4..---------------------------------------------------------------------
---2..----3..-----0..----2..---------------------------------------------------------------------
-------------------------------------------------------------------------------------------------

Figure N:

---------------------------------------------------------
---------------------------------------------------------
---------------------------------------------------------
---5--2--4--1--2------1----------------------------------
-------------------3------2------------------------------
---------------------------------------------------------

Figure O:

---------------------------------------------------------
---------------------------------------------------------
---------------------------------------------------------
---2------0----------------------------------------------
-------3------2--3--0--2--3------------------------------
---------------------------------------------------------

Figure P:

-------------------------------------------------------------------------------|--------
-------------------------------------------------------------------------------|--------
-------------------------------------------------------------------------------|--------
----4--1---2-------1--------------------------1---2---1---2---4---5------------|---2----
----------------3-------2---3---0---2---3--------------------------------------|--------
-------------------------------------------------------------------------------|--------
            

comments powered by Disqus
↑ Back to top | Cradle Of Filth Tabs for Beneath The Howling Stars. Lyrics for acoustic guitar and electric guitar. Tablatures and chords are parodies/interpretations of the original songs. You may use it for private study, scholarship, research or language learning purposes only