» » »

Cradle Of Filth, Babylon Ad Tabs (ver.2)

Artists:  A B C D E F G H I J K L M N O P Q R S T U V W X Y Z # 

Babylon Ad Tabs (ver.2)

Cradle Of Filth Tabs
Rating:
0/5 (0 votes)
Babylon Ad lessons Tabs too difficult? Try these video lessons and learn fast
                Tunning C G C F A D


|-------------------------------------------------------------------|
|-------------------------------------------------------------------|
|-------------------------------------------------------------------|
|--4-----3-----4--3-----0---1-----4-----3-----4--3-----6--6---------|
|--4-----3-----4--3-----0---1-----4-----3-----4--3------------------|
|--4-----3-----4--3-----0---1-----4-----3-----4--3-----6--6---------|

|-------------------------------------------------------------------|
|-------------------------------------------------------------------|
|-------------------------------------------------------------------|
|--5--5\------------------------------------------------------------|
|--5--5\------------------------------------------------------------|
|--5--5\------------------------------------------------------------|

|-------------------------------------------------------------------|
|-------------------------------------------------------------------|
|--------------------------1110-------------------------------------|
|--10--10------9-10-7-9--9-9-8--------------------------------------|
|--10--10------9-10-7-9--9------------------------------------------|
|--10--10------9-10-7-9--9------------------------------------------|

|-------------------------------------------------------------------|
|-------------------------------------------------------------------|
|-------------------------------------------------------------------|
|--0-2-3-0-3-6-6----------------------------------------------------|
|--0-2-3-0-3-6-6----------------------------------------------------|
|--0-2-3-0-3-6-6----------------------------------------------------|

|-------------------------------------------------------------------|
|-------------------------------------------------------------------|
|------------1110---------------------------------------------------|
|------------9-8----------------------------------------------------|
|-------------------------------------------------------------------|
|--9-10-7-9---------------------------------------------------------|
   " "  " "
|-------------------------------------------------------3-----------|
|--6-3--3--3--3--3--6-3-5-3-6-3-6-3--3--3--3--3--6-3--3---6-5-------|
|-------------------------------------------------------------------|
|-------------------------------------------------------------------|
|-------------------------------------------------------------------|
|-------------------------------------------------------------------|

|-------------------------------------------------------------------|
|--6-3--3--3--3--3--6-3-5-3-6-3-6-3--3--3--3--6-5-3-5-3-2-2---------|
|-------------------------------------------------------------------|
|-------------------------------------------------------------------|
|-------------------------------------------------------------------|
|-------------------------------------------------------------------|

|------------------------3--------------------------------------------------------------|
|--------------------------6-5-6-3--3--3--3--3--6-3-5-3-6-3-6-3--3--3--3--6-5-3-5-3-2-2-|
|----------------------2----------------------------------------------------------------|
|--8-------------8----------------------------------------------------------------------|
|--8-------------8----------------------------------------------------------------------|
|--8-----10-9-10-8----------------------------------------------------------------------|

|--------------------------------------------------------------------|
|--------------------------------------------------------------------|
|--------------------------------------------------------------------|
|--5----------5----------8----------8----------5----------5----------|
|--5----------5----------8----------8----------5----------5----------|
|--5--5-5-5-5-5--5-5-5-5-8--8-8-8-8-8--8-8-8-8-5--5-5-5-5-5--5-5-5-5-|

|-------------------------------------------------------------------|
|-------------------------------------------------------------------|
|-------------------------------------------------------------------|
|--3-----5-----6--7-------------------------------------------------|
|--3-----5-----6--7-------------------------------------------------|
|--3-----5-----6--7-------------------------------------------------|

|-------------------------------------------------------------------|
|-------------------------------------------------------------------|
|--10----7----------7--12-----5-------------------------------------|
|--10----7----------7--12-----5-------------------------------------|
|--8-----5----------5--10-----3-------------------------------------|
|-------------------------------------------------------------------|

  gtr1
|------------------------------------------------------------------------------------------------------|
|-------------------------6-----------------5--6---------------------5-6-----5-6--3------5--6----------|
|-2-----------------------------------------------3-----------------------5----------------------------|
|------------------------------------------------------------------------------------------------------|
|------------------------------------------------------------------------------------------------------|
|------------------------------------------------------------------------------------------------------|
| gtr2                                                                                                 |
|-10-------12-------10----10-------12-------10----13-10-13-10-13-10-13-10-15-10-15-10-15-10-15-10------|
|----10-10----10-10----10----10-10----10-10----10------------------------------------------------------|
|------------------------------------------------------------------------------------------------------|
|------------------------------------------------------------------------------------------------------|
|------------------------------------------------------------------------------------------------------|
|------------------------------------------------------------------------------------------------------|

  gtr1
|------------------------------------------------------------------------------------------------------|
|-------------------------6--------------------8--3----------------------------------------------------|
|-2-----------------------------------------------------------------------6--------5-------------------|
|------------------------------------------------------------------------------------------------------|
|------------------------------------------------------------------------------------------------------|
|------------------------------------------------------------------------------------------------------|
| gtr2                                                                                                 |
|-10-------12-------10----10-------12-------10----13-10-13-10-13-10-13-10-13-12----12-13-15-13-12------|
|----10-10----10-10----10----10-10----10-10----10-------------------------------15---------------------|
|------------------------------------------------------------------------------------------------------|
|------------------------------------------------------------------------------------------------------|
|------------------------------------------------------------------------------------------------------|
|------------------------------------------------------------------------------------------------------|
            

comments powered by Disqus
↑ Back to top | Cradle Of Filth Tabs for Babylon Ad. Lyrics for acoustic guitar and electric guitar. Tablatures and chords are parodies/interpretations of the original songs. You may use it for private study, scholarship, research or language learning purposes only