» » »

You Dumb Fuck Tabs (ver.1)

Artists:  A B C D E F G H I J K L M N O P Q R S T U V W X Y Z # 

You Dumb Fuck Tabs (ver.1)

Crackout
Rating:
3/5 (4 votes)

Hard to play? Try these video lessons and learn fast.
                hey guys here is my try at this amazing(ly hard) song
CRACKOUT RULLETHHH!!!!
i am tabbing the whole song out how it is no ordering at the end or anything so it 
might turn out quite long. all the parts differ in the song so remember that

Intro - pick really really fast
e|---------------------------------------------------------|
B|--9--9--9--9--9--9--9--9--9--9--9--9--9--9--9--9---------|
G|-9--9--9--9--9--9--9--9--6--6--6--6--8--8--8--8----------|
D|---------------------------------------------------------|
A|---------------------------------------------------------|
E|---------------------------------------------------------|

e|---------------------------------------------------------|
B|--9--9--9--9--9--9--9--9--9--9--9--9--9--9--9--9---------|
G|-9--9--9--9--9--9--9--9--6--6--6--6--8--8--8--8----------|
D|---------------------------------------------------------|
A|---------------------------------------------------------|
E|---------------------------------------------------------|

e|---------------------------------------------------------|
B|--9--9--9--9--9--9--9--9--9--9--9--9--9--9--9--9---------|
G|-9--9--9--9--9--9--9--9--6--6--6--6--8--8--8--8----------|
D|---------------------------------------------------------|
A|---------------------------------------------------------|
E|---------------------------------------------------------|

e|---------------------------------------------------------|
B|--9--9--9--9--9--9--9--9---------------------------------|
G|-9--9--9--9--9--9--9--9----------------------------------|
D|---------------------------------------------------------|
A|---------------------------------------------------------|
E|---------------------------------------------------------|
........................here it is let the f**ker let it go!

Main Riff - u dont have to hammer on the 9 and 11 but it sounds better 
e|---------------------------------------------------------|
B|---------------------------------------------------------|
G|---------------------------------------------------------|
D|---9h11-9h11---9h11-9h11---9h11-9h11---11-9-7-4-2--------|
A|---------------------------------------11-9-6-4-2--------|
E|-0-----------0-----------0-----------0--9-7-4-2-0--------|

e|---------------------------------------------------------|
B|---------------------------------------------------------|
G|---------------------------------------------------------|
D|---9h11-9h11---9h11-9h11---9h11-9h11---11-9-7-4-2--------|
A|---------------------------------------11-9-6-4-2--------|
E|-0-----------0-----------0-----------0--9-7-4-2-0--------|
                                       play this last 
                                         part twice

e|---------------------------------------------------------|
B|---------------------------------------------------------|
G|---------------------------------------------------------|
D|---9h11-9h11---9h11-9h11---9h11-9h11---11-9-7-4-2--------|
A|---------------------------------------11-9-6-4-2--------|
E|-0-----------0-----------0-----------0--9-7-4-2-0--------|

e|---------------------------------------------------------|
B|---------------------------------------------------------|
G|---------------------------------------------------------|
D|---9h11-9h11---9h11-9h11---9h11-9h11---11-9-7-4----------|
A|---------------------------------------11-9-6-4----------|
E|-0-----------0-----------0-----------0--9-7-4-2----------|

Pre-verse - i think this is wrong but anyway...include some bending on this part 
especially the last three chords

e|---------------------------------------------------------|
B|---------------------------------------------------------|
G|---7/8-5/10---7/8-7/10---7/8-7/10--14-12-10--------------|
D|---7/8-5/10---7/8-7/10---7/8-7/10--14-12-10--------------|
A|---5/6-5/-8---5/6-5/-8---5/6-5/-8--12-10--8--------------|
E|-0----------0----------0---------------------------------|

e|---------------------------------------------------------|
B|---------------------------------------------------------|
G|---7/8-5/10---7/8-7/10---7/8-7/10--14-12-10--------------|
D|---7/8-5/10---7/8-7/10---7/8-7/10--14-12-10--------------|
A|---5/6-5/-8---5/6-5/-8---5/6-5/-8--12-10--8--------------|
E|-0----------0----------0---------------------------------|

Verse - just a few chords here and there
e|---------------------------------------------------------|
B|---------------------------------------------------------|
G|------6--4--2---------6----7----2------------------------|
D|------6--4--2---------6----7----2------------------------|
A|------4--2--0---------4----5----0------------------------|
E|---------------------------------------------------------|
  ....done to you....could forget me...........

e|---------------------------------------------------------|
B|--9--9--9--9--9--9--9--9--9--9--9--9---------------------|
G|-9--9--9--9--9--9--9--9--6--6--6--6----------------------|
D|----------------------------------------6--7--9----------|
A|----------------------------------------6--7--9----------|
E|----------------------------------------4--5--7----------|

e|---------------------------------------------------------|
B|---------------------------------------------------------|
G|------7--5--3---------7----8---10------------------------|
D|------7--5--3---------7----8---10------------------------|
A|------5--3--1---------5----6----8------------------------|
E|---------------------------------------------------------|
  ....said i'd do....would regret this............

e|---------------------------------------------------------|
B|--9--9--9--9--9--9--9--9--9--9--9--9--9--9--9--9---------|
G|-9--9--9--9--9--9--9--9--6--6--6--6--8--8--8--8----------|
D|---------------------------------------------------------|
A|---------------------------------------------------------|
E|---------------------------------------------------------|

e|---------------------------------------------------------|
B|--9--9--9--9--9--9--9--9--9--9--9--9--9--9--9--9---------|
G|-9--9--9--9--9--9--9--9--6--6--6--6--8--8--8--8----------|
D|---------------------------------------------------------|
A|---------------------------------------------------------|
E|---------------------------------------------------------|

very fast build up to chorus
e|---------------------------------------------------------|
B|---------------------------------------------------------|
G|---------------------------------------------------------|
D|-2222222222222222-77777777-44444444----------------------|
A|-2222222222222222-77777777-44444444----------------------|
E|-0000000000000000-55555555-22222222----------------------|
 PM..................................

Chorus - for the chorus there are two guitar parts
Guitar 1
e|---------------------------------------------------------|
B|---------------------------------------------------------|
G|-13----------14---------16-------------------------------|
D|--x-----------x----------x-------------------------------|
A|-11---X32----12---X16---14---X16-------------------------|
E|---------------------------------------------------------|

Guitar 2
e|---------------------------------------------------------|
B|---------------------------------------------------------|
G|---------------------------------------------------------|
D|-2222222222222222-77777777-44444444----------------------|
A|-2222222222222222-77777777-44444444----------------------|
E|-0000000000000000-55555555-22222222----------------------|

e|---------------------------------------------------------|
B|---------------------------------------------------------|
G|---------------------------------------------------------|
D|-2222222222222222-77777777-44444444----------------------|
A|-2222222222222222-77777777-44444444----------------------|
E|-0000000000000000-55555555-22222222----------------------|

guitar 2 then carries on to play this and guitar 1 stops
e|---------------------------------------------------------|
B|---------------------------------------------------------|
G|---------------------------------------------------------|
D|-7777-444-999--------------------------------------------|
A|-7777-444-999--------------------------------------------|
E|-5555-222-777--------------------------------------------|

Main riff
e|---------------------------------------------------------|
B|---------------------------------------------------------|
G|---------------------------------------------------------|
D|---9h11-9h11---9h11-9h11---9h11-9h11---11-9-7-4-2--------|
A|---------------------------------------11-9-6-4-2--------|
E|-0-----------0-----------0-----------0--9-7-4-2-0--------|

e|---------------------------------------------------------|
B|---------------------------------------------------------|
G|---------------------------------------------------------|
D|---9h11-9h11---9h11-9h11---9h11-9h11---11-9-7-4-2--------|
A|---------------------------------------11-9-6-4-2--------|
E|-0-----------0-----------0-----------0--9-7-4-2-0--------|

Pre-verse
e|---------------------------------------------------------|
B|---------------------------------------------------------|
G|---7/8-5/10---7/8-7/10---7/8-7/10--14-12-10--------------|
D|---7/8-5/10---7/8-7/10---7/8-7/10--14-12-10--------------|
A|---5/6-5/-8---5/6-5/-8---5/6-5/-8--12-10--8--------------|
E|-0----------0----------0---------------------------------|

e|---------------------------------------------------------|
B|---------------------------------------------------------|
G|---7/8-5/10---7/8-7/10---7/8-7/10--14-15-14--------------|
D|---7/8-5/10---7/8-7/10---7/8-7/10--14-15-14--------------|
A|---5/6-5/-8---5/6-5/-8---5/6-5/-8--12-13-12--------------|
E|-0----------0----------0---------------------------------|


Verse - no little chords in this verse, goes straight to...
e|---------------------------------------------------------|
B|--9--9--9--9--9--9--9--9--9--9--9--9--9--9--9--9---------|
G|-9--9--9--9--9--9--9--9--6--6--6--6--8--8--8--8----------|
D|---------------------------------------------------------|
A|---------------------------------------------------------|
E|---------------------------------------------------------|

e|---------------------------------------------------------|
B|--9--9--9--9--9--9--9--9--9--9--9--9--9--9--9--9---------|
G|-9--9--9--9--9--9--9--9--6--6--6--6--8--8--8--8----------|
D|---------------------------------------------------------|
A|---------------------------------------------------------|
E|---------------------------------------------------------|

e|---------------------------------------------------------|
B|---------------------------------------------------------|
G|---------------------------------------------------------|
D|-2222222222222222-77777777-44444444----------------------|
A|-2222222222222222-77777777-44444444----------------------|
E|-0000000000000000-55555555-22222222----------------------|
 PM..................................

Chorus
Guitar 1
e|---------------------------------------------------------|
B|---------------------------------------------------------|
G|-13----------14---------16-------------------------------|
D|--x-----------x----------x-------------------------------|
A|-11---X32----12---X16---14---X16-------------------------|
E|---------------------------------------------------------|

Guitar 2
e|---------------------------------------------------------|
B|---------------------------------------------------------|
G|---------------------------------------------------------|
D|-2222222222222222-77777777-44444444----------------------|
A|-2222222222222222-77777777-44444444----------------------|
E|-0000000000000000-55555555-22222222----------------------|

e|---------------------------------------------------------|
B|---------------------------------------------------------|
G|---------------------------------------------------------|
D|-2222222222222222-77777777-44444444----------------------|
A|-2222222222222222-77777777-44444444----------------------|
E|-0000000000000000-55555555-22222222----------------------|

Guitar 2 then carries on to play this and guitar 1 stops
e|---------------------------------------------------------|
B|---------------------------------------------------------|
G|---------------------------------------------------------|
D|-7777-444-999--------------------------------------------|
A|-7777-444-999--------------------------------------------|
E|-5555-222-777--------------------------------------------|

Bridge - carries on from Chorus above
e|---------------------------------------------------------|
B|---------------------------------------------------------|
G|---------------------------------------------------------|
D|-6-X-6-X-6-X-6-------------------------------------------|
A|-6-X-6-X-6-X-6-------------------------------------------|
E|-4-X-4-X-4-X-4-------------------------------------------|

e|---------------------------------------------------------|
B|---------------------------------------------------------|
G|-13-13-13-11-8-------------------------------------------|
D|--x--x--x--x-x-------------------------------------------|
A|-11-11-11--9-6-------------------------------------------|
E|---------------------------------------------------------|

e|---------------------------------------------------------|
B|---------------------------------------------------------|
G|---------------------------------------------------------|
D|-6-X-6-X-6-X-6-------------------------------------------|
A|-6-X-6-X-6-X-6-------------------------------------------|
E|-4-X-4-X-4-X-4-------------------------------------------|

e|---------------------------------------------------------|
B|---------------------------------------------------------|
G|-13-13-13-12-8-------------------------------------------|
D|--x--x--x--x-x-------------------------------------------|
A|-11-11-11-10-6-------------------------------------------|
E|---------------------------------------------------------|

e|---------------------------------------------------------|
B|---------------------------------------------------------|
G|---------------------------------------------------------|
D|-6-X-6-X-6-X-6--6-7-9---7-9-11---6-7-9-------------------|
A|-6-X-6-X-6-X-6--6-7-9---7-9-11---6-7-9-------------------|
E|-4-X-4-X-4-X-4--4-5-7---5-7--9---4-5-7-------------------|

e|---------------------------------------------------------|
B|---------------------------------------------------------|
G|---------------------------------------------------------|
D|-222222222222222222222222222-----------------------------|
A|-222222222222222222222222222-----------------------------|
E|-000000000000000000000000000-----------------------------|
 PM...........................

there are two guitars in this part and carries on into the chorus, join both 
parts onto the chorus just carry on playing there is no gap, this guitar 1 part 
is like a little solo or lead part

Guitar 1
e|---------------------------------------------------------|
B|---------------------------------------------------------|
G|-8/9x8-8-99999999-6666-9999-111111-888-999999-11111111---|
D|-x/x/x-x-xxxxxxxx-xxxx-xxxx--x-x-x-xxx-xxxxxx--x-x-x-x---|
A|-6/7/6-6-77777777-4444-7777--9-9-9-666-777777--9-9-9-9---|
E|---------------------------------------------------------|

Guitar 2
e|---------------------------------------------------------|
B|---------------------------------------------------------|
G|---------------------------------------------------------|
D|-2222222222222222-77777777-44444444----------------------|
A|-2222222222222222-77777777-44444444----------------------|
E|-0000000000000000-55555555-22222222----------------------|

e|---------------------------------------------------------|
B|---------------------------------------------------------|
G|---------------------------------------------------------|
D|-2222222222222222-77777777-44444444----------------------|
A|-2222222222222222-77777777-44444444----------------------|
E|-0000000000000000-55555555-22222222----------------------|

Chorus
Guitar 1
e|---------------------------------------------------------|
B|---------------------------------------------------------|
G|-13----------14---------16-------------------------------|
D|--x-----------x----------x-------------------------------|
A|-11---X32----12---X16---14---X16-------------------------|
E|---------------------------------------------------------|

Guitar 2
e|---------------------------------------------------------|
B|---------------------------------------------------------|
G|---------------------------------------------------------|
D|-2222222222222222-77777777-44444444----------------------|
A|-2222222222222222-77777777-44444444----------------------|
E|-0000000000000000-55555555-22222222----------------------|

e|---------------------------------------------------------|
B|---------------------------------------------------------|
G|---------------------------------------------------------|
D|-2222222222222222-77777777-44444444----------------------|
A|-2222222222222222-77777777-44444444----------------------|
E|-0000000000000000-55555555-22222222----------------------|

Guitar 2 then carries on to play this again and guitar 1 stops
e|---------------------------------------------------------|
B|---------------------------------------------------------|
G|---------------------------------------------------------|
D|-7777-444-999--------------------------------------------|
A|-7777-444-999--------------------------------------------|
E|-5555-222-777--------------------------------------------|

Main Riff and Outro
e|---------------------------------------------------------|
B|---------------------------------------------------------|
G|---------------------------------------------------------|
D|---9h11-9h11---9h11-9h11---9h11-9h11---11-9-7-4-2--------|
A|---------------------------------------11-9-6-4-2--------|
E|-0-----------0-----------0-----------0--9-7-4-2-0--------|

e|---------------------------------------------------------|
B|---------------------------------------------------------|
G|---------------------------------------------------------|
D|---9h11-9h11---9h11-9h11---9h11-9h11---11-9-7-4-2--------|
A|---------------------------------------11-9-6-4-2--------|
E|-0-----------0-----------0-----------0--9-7-4-2-0--------|

End
e|---------------------------------------------------------|
B|---------------------------------------------------------|
G|---------------------------------------------------------|
D|-11-9-6-4-8-8-2------------------------------------------|
A|-11-9-6-4-8-8-2------------------------------------------|
E|--9-7-4-2-6-6-0------------------------------------------|

yay thats it, turned out quite long but for a great song like this its worth it. 
hope u like my tab and bye bye and dont forget this song is reaalllyy hard to play so 
if ur a beginner youre gonna have to practice it a lot to get it it really fast
            
Hard to play? Try these video lessons and learn fast. | Correct




comments powered by Disqus
↑ Back to top | Tablatures and chords are parodies/interpretations of the original songs. You may use it for private study, scholarship, research or language learning purposes only