>
 >
Over My Head 1

Over My Head 1 Guitar Tabs

Crackout - Over My Head 1 chords, tabs, tablatures, lyrics

Guitar lessons | Add/correct | Request | Top 50 tabs Artists:  A B C D E F G H I J K L M N O P Q R S T U V W X Y Z 0-9

Over My Head 1 Guitar Tabs – Crackout

CD, Sheet music, Poster

Do you like Over My Head 1? Share with your friends now
TabsTabs v2
Crackout - Over My Head


Intro:


Bass Intro & Verse:

G [-----------------------------------]
D [-----------------------------------]
A [-2-2-2-2---------/-5-5-5-5---------]
E [---------2-2-2-2-----------5-5-5-5-]


********************************************************************************


Verse:


Guitar 1 played w/out dist:

E [-----------------------------]
B [-----------------------------]
G [---7-------6-------7---7-6---]
D [-9---9---4---4---7---7-----9-]
A [-----------------------------]
E [-----------------------------]

E [---------------------------------------]
B [---------------------------------------]
G [---7---------6---------7---------------]
D [-9---9-----4---4-----7---7---7---7-7---]
A [-----------------------------7---7-7---]
E [-----------------------------5---5-5---]


2nd Guitar - Played In Verse 2 only:

B [-------------]
G [-12-11-12-11-]
D [-------------]


note sustained before bridge:

G [-6-]


********************************************************************************


Bridge:


Guitar played w/dist:

E [-------------------------------------------------------------------]
B [-------------------------------------------------------------------]
G [-7---7---7-7-7-7---7-7-7---7-7-7---7---7---7-7-7-9---9-9-9b-r9-9-9-]
D [-x---x---x-x-x-x---x-x-x---x-x-x---x---x---x-x-x-x---x-x-x---x-x-x-]
A [-5---5---5-5-5-5---5-5-5---5-5-5---5---5---5-5-5-7---7-7-7b-r7-7-7-]
E [-------------------------------------------------------------------]


E [--------------------------------------------------------------------------]
B [--------------------------------------------------------------------------]
G [-7---7---7-7-7-7---7-7-7---7-7-7----11---11---11-11-11-11b12r11---6---6-6-]
D [-x---x---x-x-x-x---x-x-x---x-x-x----x----x-----x--x--x--x-----x---x---x-x-]
A [-9---9---9-9-9-9---9-9-9---9-9-9----9----9-----9--9--9--9b10r-9---4---4-4-]
E [--------------------------------------------------------------------------]


Bass:

G [---------------------------------------------------------------]
D [---------------------------------------------------------------]
A [---------------5---5-5---5-5-5-2---2---2-2-2-------------------]
E [-3---3---3-3-3-------------------------------2---2-2-2---2-0-2-]

********************************************************************************


Chorus:


Guitar played w/dist:

E [-----------------------------10-9-10-7-]
A [-----------------------------10-9-10-7-]
D [-4-4-6-6-7-7-9-9-11-11-11-11-----------]
G [-x-x-x-x-x-x-x-x--x--x--x--x-----------] (x3)
B [-2-2-4-4-5-5-7-7--9--9--9--9-----------]
E [---------------------------------------]

E [-------------------]
A [-------------------]
D [-4---6---7-7-7-----]
G [-x---x---x-x-x---4-]
B [-2---4---5-5-5---4-]
E [-----------------2-]


Bass:

G [---------------------------------]
D [---------------------------------]
A [-----------------5-5-5-5---------]
E [-3-3-3-3-3-3-3-3---------5-5-5-5-]


********************************************************************************


Outro:


Play chorus then finish with:

E [-------]
A [-------]
D [-------]
G [-4---5-]
B [-4---5-]
E [-2---3-]


Bass:

G [---------------------------------]
D [---------------------------------]
A [-----------------5-5-5-5---------] cont. to fade
E [-3-3-3-3-3-3-3-3---------5-5-5-5-]





Comments


Popular Crackout tabs & chords
Joey Lost His Mind Bass Tabs
Volume Chords
Breakout Drum Tabs
Fairytale Nothing Tabs
I Am The One 1 Tabs
Over My Head Tabs
Volume Tabs
You Dumb Fuck 1 Tabs
You Dumb Fuck 2 Tabs
Volume Ukulele


Song lyrics



↑ Back to top | Tablatures and chords are parodies/interpretations of the original songs. You may use it for private study, scholarship, research or language learning purposes only
© 2014 AZChords.com Contact us | Privacy policy | DMCA | Add/correct tabs | Request tabs | Top 50 tabs