» » »

Crackout, I Am The One Tabs (ver.1)

Artists:  A B C D E F G H I J K L M N O P Q R S T U V W X Y Z # 

I Am The One Tabs (ver.1)

Crackout Tabs
Rating:
5/5 (2 votes)
I Am The One lessons Tabs too difficult? Try these video lessons and learn fast
                


Intro
e-----------------------------------
 --------4--5--7----9--7--5---------
 --------4--6--8----8--8--6---------
 -----------------------------------   x4
 -----------------------------------
E-----------------------------------

       DRUMS

e-----------------------------------
 -----------------------------------
 --4-4-4-4---------6-6-6-6----------
 --4-4-4-4-2-2-2-2-6-6-6-6-4-4-2-2--   X2
 --2-2-2-2-2-2-2-2-4-4-4-4-4-4-2-2--
E----------0-0-0-0---------2-2-0-0--



e----------------------------
 ----------------------------
 --4-4-4-4-4-4--6-6-6-6-6-6--
 --x-x-x-x-x-x--x-x-x-x-x-x-- X2
 --2-2-2-2-2-2--4-4-4-4-4-4--
E----------------------------
   Who isnt...  on this...
   Who...       himself...

e-----------------------------------
 -----------------------------------
 --4-4-4-4---------6-6-6-6----------
 --4-4-4-4-2-2-2-2-6-6-6-6-4-4-2-2--   X2
 --2-2-2-2-2-2-2-2-4-4-4-4-4-4-2-2--
E----------0-0-0-0---------2-2-0-0--
   I am the one...
   Who falls...


e----------------------------
 ----------------------------
 --4-4-4-4-4-4--6-6-6-6-6-6--
 --x-x-x-x-x-x--x-x-x-x-x-x-- X2
 --2-2-2-2-2-2--4-4-4-4-4-4--
E----------------------------
   Who works...  nothing real...
   Who runs...   around...

e-----------------------------------
 -----------------------------------
 --4-4-4-4---------6-6-6-6----------
 --4-4-4-4-2-2-2-2-6-6-6-6-4-4-2-2--   X4
 --2-2-2-2-2-2-2-2-4-4-4-4-4-4-2-2--
E----------0-0-0-0---------2-2-0-0--
   I am the one...
   Who falls...
   I cant...
   I am the one...


e-----------------------------------
 --------4--5--7----9--7--5---------
 --------4--6--8----8--8--6---------
 -----------------------------------   x2
 -----------------------------------
E-----------------------------------
   You never...
   I'm gonna...
   
   
e--------------------------------------------------
 --------------------------------------------------
 --4-----------------------------------------------
 --4--4--6----------------2--6--4------------------   X2
 --2--4--6----------------2--6--4------------------
E-----2--4----------------0--4--2------------------
          Work me out...         Everyone around...
          If you really...       Then you...


e-----------------------------------
 -----------------------------------
 --4-4-4-4---------6-6-6-6----------
 --4-4-4-4-2-2-2-2-6-6-6-6-4-4-2-2--   X2
 --2-2-2-2-2-2-2-2-4-4-4-4-4-4-2-2--
E----------0-0-0-0---------2-2-0-0--

  ___        actually played on bass       ___
 |here's the lead riff if you dont have a bass|
 |        e---------------------------        |
 |        ----------------------------        |
 |        --4-4-4-4-4-4--6-6-6-6-6-6--        |
 |        --x-x-x-x-x-x--x-x-x-x-x-x-- X2     |
 |        --2-2-2-2-2-2--4-4-4-4-4-4--        |
 |        E---------------------------        |
 |___                                      ___| 

            I'm full...  to the...
            I don't...   what i'm...



e-----------------------------------
 -----------------------------------
 --4-4-4-4---------6-6-6-6----------
 --4-4-4-4-2-2-2-2-6-6-6-6-4-4-2-2--   X4
 --2-2-2-2-2-2-2-2-4-4-4-4-4-4-2-2--
E----------0-0-0-0---------2-2-0-0--
   I am the one...
   Who falls...
   I cant...
   I am the one...



e--------------------------------------------------
 --------------------------------------------------
 --4-----------------------------------------------
 --4--4--6----------------2--6--4------------------   X2
 --2--4--6----------------2--6--4------------------
E-----2--4----------------0--4--2------------------
          Work me out...         Everyone around...

          If you really...       Then you...


e------------------------------------------------------------------
 ------------------------------------------------------------------
 ------------------------------------------------------------------
 -----9-----9-------9-----9----------9-----9------------9-----9----
 ----------------7-----7-----------------------------7-----7-------
E--7-----7------------------------9-----9--------------------------
         I am          the one          who comes          undone 
         Who falls     apart            when things        are gone
         I cant        believe          its over           me
         Iam           the one          who comes          undone



e-----------------------------------
 -----------------------------------
 --4-4-4-4---------6-6-6-6----------
 --4-4-4-4-2-2-2-2-6-6-6-6-4-4-2-2--   X4
 --2-2-2-2-2-2-2-2-4-4-4-4-4-4-2-2--
E----------0-0-0-0---------2-2-0-0--
   I am the one...
   Who falls...
   I cant...
   I am the one...


e-----------------------------------
 -----------------------------------
 --4-4-4-4---------6-6-6-6----------
 --4-4-4-4-2-2-2-2-6-6-6-6-4-4-2-2--   X2
 --2-2-2-2-2-2-2-2-4-4-4-4-4-4-2-2--
E----------0-0-0-0---------2-2-0-0--



e-----------------------------------
 -----------------------------------
 --4-4-4-4---------6-6-6-6----------
 --4-4-4-4-2-2-2-2-6-6-6-6-4-4-2-2--   X1
 --2-2-2-2-2-2-2-2-4-4-4-4-4-4-2-2--
E----------0-0-0-0---------2-2-0-0--
   I cant believe its over me


e-----------------------------------
 -----------------------------------
 --4-4-4-4----------6---------------
 --4-4-4-4-2-2-2-2--6-----4--2------   X1
 --2-2-2-2-2-2-2-2--4-----4--2------
E----------0-0-0-0--------2--0------
   I am the one who comes un-done





Lrics (follow starters next to tab)

Who isn't on this trip for fun 
Who wastes himself on every one 

I am the one 
Who comes undone 
Who falls apart when things are gone 

Who works for nothing real at all 
Who runs back up around a call 

I am the one who comes undone 
Who falls apart when things are gone 
I can't believe its over me 
I am the one who comes undone 

You never knew this, it isn't like me 
I'm gonna do this and the it might be 

Work me out and I'll be 
Every one around me 
If you really want that 
Then you better tell me 

I'm full up to the brim on blood 
I don't know what I'm thinking of 

I am the one who comes undone 
Who falls apart when things are gone 
I can't believe it's over me 
I am the one who comes undone 

Work me out and I'll be 
Every one around me 
If you really want that 
Then you better tell me 

I am the one who comes undone 
Who falls apart when things are gone 
I can't believe its over me 
I am the one who comes undone 

I am the one who comes undone 
Who falls apart when things are gone 
I can't believe it's over me 
I am the one who comes undone 

I can't believe it's over me 
I am the one who comes undone
            

comments powered by Disqus
↑ Back to top | Crackout Tabs for I Am The One. Lyrics for acoustic guitar and electric guitar. Tablatures and chords are parodies/interpretations of the original songs. You may use it for private study, scholarship, research or language learning purposes only