» » »

Covenant, The Chasm Tabs (ver.2)

Artists:  A B C D E F G H I J K L M N O P Q R S T U V W X Y Z # 

The Chasm Tabs (ver.2)

Covenant Tabs
Rating:
5/5 (1 vote)
The Chasm lessons Tabs too difficult? Try these video lessons and learn fast
                

Band: COVENANT




Intro: (part 1)



|----------------------------|-----------------------------|

|----------------------------|-----------------------------|

|----------------------------|-------2---------------1-----|

|---------2-5-4---2----------|----4-----4--------3------3--|

|----2-3-------------3-------|-3--------------2------------|

|--0-------------------------|-----------------------------|

2x



(part 2)



|----------------------------|-----------------------------|

|----------------------------|-----------------------------|

|----------2-5-4-2-----------|--5-4-2-0----3-2-0-----------|

|-----2-3-----------3--------|--------------------3--------|

|--0-------------------------|-----------------------------|

|----------------------------|-----------------------------|

2x



repeat part 1 + 2



Keyboard part (sounds probably like this)

(part 3)



|----------------------------|

|----------------------------|

|---------3-2----------2p----|

|----------------------------|

|-----2------------2---------|

|--0------------0------------| 4x

  pm           pm


Another keyboard part

(part 4)



|-----2h3p2h3-3p2--|----2h3p2h3-3p2----|----1h2p1h2-2p1----|

|------------------|-------------------|-------------------|

|------------------|-------------------|-------------------|

|------------------|--4----------------|--3----------------|

|------------------|--2----------------|--1----------------|

|--0---------------|-------------------|-------------------|



|-----1h2p1h2-2p1------------|-----------------------------|

|----------------------------|-----------------------------|

|----------------------------|-----------------------------|

|--3-------------------------|--4-4---3-3------------------|

|--1-------------------------|--2-2---1-1------------------|

|----------------------------|--------------(2nd guitar)----|

10x



repeat part 3

repeat part 1

repeat part 2

repeat part 2
            

comments powered by Disqus
↑ Back to top | Covenant Tabs for The Chasm. Lyrics for acoustic guitar and electric guitar. Tablatures and chords are parodies/interpretations of the original songs. You may use it for private study, scholarship, research or language learning purposes only