» » »

Costello Elvis, Olivers Army Bass tabs (ver.1)

Artists:  A B C D E F G H I J K L M N O P Q R S T U V W X Y Z # 

Olivers Army Bass tabs (ver.1)

Costello Elvis Tabs
 Rating:
4/5 (4 votes)
Olivers Army  lessons Tabs too difficult? Try these video lessons and learn fast
1
                (1)
Oliver's Army (Elvis Costello)
Taken fom 'The Man: Greatest Hits'


G |----------------------------------------------------------|
D |---------7-7-5-4----------------------7-7-5-4-------------|
A |-----4-7---------7-4-5-4---7------4-7---------7-4-5-4-3-5-|
E |-5-5---------------------7----5-5-------------------------|

G |-------------------------------------------------------------|
D |-------------------------------------------------------------|
A |-9-7-6-----------9-7-6-----5-6-7-----------2-2-0-0-2-2-------|
E |-------9-7-5-4-2-------9-7-------7-5-5-0-0-------------0-0---|

G |----------------------------------------------------------|
D |---------------2---------7-7-5-4--------------------------|
A |---------5-4-2---0-0-4-7---------7-4-5-4---7--------------|
E |-5-4-2-0---------------------------------7----------------|

G |----------------------------------------------------------------------|
D |-----------3-6-3-----------------------------------------4-2-1-2-1----|
A |-----7-6-4---------1-4-1-----2-----1-4-1-----2-----1-4-1-----------4--|
E |-4-2-------------2-------0-4---4-2-------0-4---4-2--------------------|

G |---------4-4-2-1---------------------4-4-2-1--------------|
D |-----1-4---------4-1-2-1---4-----1-4---------4-1-2-1-0-1--|
A |-2-2---------------------4---2-2--------------------------|
E |----------------------------------------------------------|

G |----------------------------------------------------------------------|
D |--6-4-3-----------6-4-3-----2-3-4-------------------------------------|
A |--------6-4-------------6-4-------6-4-2-2---------4-4-2-2---------4-4-|
E |------------7-6-4-------------------------2-2-4-4---------2-2-4-4-----|

G |----------------------------------------------------------|
D |---------------4--------------------------------4---------|
A |-2-1-------6-4---2-1--------6-4---2-1-----7-6-4---2-------|
E |-----4-2-0------------4-2-0-----2-----4-2-----------------|

vamp on last riff under "oh oh oh"
            
Submit corrections

comments powered by Disqus
↑ Back to top | Costello Elvis Bass for Olivers Army. Lyrics for acoustic guitar and electric guitar. 1 Tablatures and chords are parodies/interpretations of the original songs. You may use it for private study, scholarship, research or language learning purposes only