>
 >
Pump It Up

Pump It Up Bass Tabs

Costello Elvis - Pump It Up chords, tabs, tablatures, lyrics

Guitar lessons | Add/correct | Request | Top 50 tabs Artists:  A B C D E F G H I J K L M N O P Q R S T U V W X Y Z 0-9

Pump It Up Bass Tabs – Costello Elvis

CD, Sheet music, Poster

Do you like Pump It Up? Share with your friends now
Bass TabsTabsTabs v2
PUMP IT UP (Bassline)
                          As recorded by Elvis Costello


Gtr I (E A D G)

   Intro
    Moderate Rock Q=135
   4/4
    Gtr I
    E E E E E E E E   E E E E E E E E  3x E E E E E E E E   E E E E E E E E
||------------------|------------------||-----------------|-----------------||
||o-----1---2-1-----|-----------------o||-----1---2-1-----|-----------------||
||o-------------0-1-|-----------------o||-------------0-1-|-----------------||
||--2---------------|-2-2-0-2---0-2-0--||-2---------------|-2-2-4-4-5-5-6-6-||


  Q  Q  E E E E   Q  Q  E E E E   Q  Q  E E E E   Q  Q  E E E E
|---------------|---------------|---------------|---------------||
|---------------|---------------|---------------|---------------||
|---------------|---------------|---------------|---------------||
|-7--7--7-6-5-7-|-7--7--7-6-5-7-|-7--7--7-6-5-7-|-7--7--7-6-5-6-||


   1st & 3rd Verse
    E E E E E E E E   E E E E E E E E  3x E E E E E E E E   E E E E E E E E
||------------------|------------------||-----------------|------------------||
||o-----6---7-6-----|-----------------o||-----6---7-6-----|------------------||
||o-------------5-6-|-----------------o||-------------5-6-|-------------5-6--||
||--7---------------|-7-7-5-7---5-7-5--||-7---------------|-7-7-5-7---7------||


 1st Chorus
  E E E E E E E E   +E  E E E E E E E   E E E E E E E E   E E E E E E E E
|-----------9---9-|-(9)-9-7---7---7-9-|-----------------|---9---------7-9\-||
|---------6---6---|---------9---9-----|---------6---6---|-6---6-7-9-9------||
|-7-7-7-----------|-------------------|-7-7-7-7---7---7-|------------------||
|-----------------|-------------------|-----------------|------------------||


  Q  Q  E E E E   Q  Q  E E E E   Q  Q  E E E E   Q  Q  E E E E
|---------------|---------------|---------------|---------------||
|---------------|---------------|---------------|---------------||
|---------------|---------------|---------------|---------------||
|-7--7--7-6-5-7-|-7--7--7-6-5-7-|-7--7--7-6-5-7-|-7--7--7-6-5-6-||


   2nd Verse
    E E E E E E E E   E E E E E E E E     E E E E E E E E   E E E E E E E E
||------------------|------------------||-----------------|------------------||
||o-----6---7-6-----|-----------------o||-----6---7-6-----|------------------||
||o-------------5-6-|-----------------o||-------------5-6-|-------------5-6--||
||--7---------------|-7-7-5-7---5-7-5--||-7---------------|-7-7-5-7---7------||


 2nd Chorus
  E E E E E E E E   +E  E E E E E E E   E E E E E E E E   +E  E E E E E E E
|-----------9---9-|-(9)-9-7---7---7-9-|-----------9---9-|-(9)-9-7---7---7-9-||
|---------6---6---|---------9---9-----|---------6---6---|---------9---9-----||
|-7-7-7-----------|-------------------|-7-7-7-7---------|-------------------||
|-----------------|-------------------|-----------------|-------------------||


  Q  E E E E E E   E E Q  E E E E   Q  E E E E E E   Q  Q  E E E E
|----------------|----------------|----------------|---------------|
|----------------|----------------|----------------|---------------|
|----------------|----------------|----------------|---------------|
|-7--7-7-7-6-5-7-|-7-7-7--7-6-5-6-|-7--7-7-7-6-5-7-|-7--7--7-6-5-6-|


  Q  Q  E E E E   Q  Q  E E E E   Q  Q  E E E E   Q  Q  E E Q
|---------------|---------------|---------------|---------------||
|---------------|---------------|---------------|---------------||
|---------------|---------------|---------------|---------------||
|-7--7--7-6-5-7-|-7--7--7-6-5-6-|-7--7--7-6-5-7-|-7--7--7-6-5\--||


 Bridge
  W          +W           W          W
|----------|------------|----------|------|
|----------|------------|----------|------|
|----------|------------|----------|------|
|-0--------|-(0)--------|----------|------|


  Q  E E E E E E   Q  Q  E E E E   Q  E E E E E E   Q  Q  E E E E
|----------------|---------------|----------------|---------------||
|----------------|---------------|----------------|---------------||
|----------------|---------------|----------------|---------------||
|-7--7-7-7-6-5-7-|-7--7--7-6-5-6-|-7--7-7-7-6-5-7-|-7--7--7-6-5-5-||


   3rd Verse
    E E E E E E E E   E E E E E E E E  3x E E E E E E E E   E E E E E E E E
||------------------|------------------||-----------------|------------------||
||o-----6---7-6-----|-----------------o||-----6---7-6-----|------------------||
||o-------------5-6-|-----------------o||-------------5-6-|-------------5-6--||
||--7---------------|-7-7-5-7---5-7-5--||-7---------------|-7-7-5-7---7------||


 3rd Chorus
  E E E E E E E E   +E  E E E E E E E   E E E E E E E E   +E  E E E E E E E
|-----------9---9-|-(9)-9-7---7---7-9-|-----------9---9-|-(9)-9-7---7---7-9-||
|---------6---6---|---------9---9-----|---------6---6---|---------9---9-----||
|-7-7-7-----------|-------------------|-7-7-7-7---------|-------------------||
|-----------------|-------------------|-----------------|-------------------||


  Q  Q  E E E E   Q  Q  E E E E   Q  Q  E E E E   Q  Q  E E E E
|---------------|---------------|---------------|----------------||
|---------------|---------------|---------------|----------------||
|---------------|---------------|---------------|----------------||
|-7--7--7-6-5-7-|-7--7--7-6-5-6-|-7--7--7-6-5-7-|-7--7--7-6-5-5/-||


 4th Verse
  E E E E E E E E   E E E E E E E E   E E E E E E E E   E E E E E  E  E E
|-----6---7-6-----|-----------------|-----6---7-6-----|-------------------|
|-------------5-6-|-----------------|-------------5-6-|-------------------|
|-7---------------|-7-7-5-7-----5-6-|-7---------------|-7-7-5-7-----------|
|-----------------|-----------7-----|-----------------|-----------(7)-4-5-|


  E E E E E E E E   E E E E E E E E   E E E E E E E E   E E E E E E E E
|-----------------|-----------------|-----------------|-----------------||
|-----6---7-6-----|-----------------|-----6---7-6-----|-----------------||
|-------------5-6-|-----------------|-------------5-6-|-------------5-6-||
|-7---------------|-7-7-5-7---5-7-5-|-7---------------|-7-7-5-7---7-----||


 4th Chorus
  E E E E E E E E   +E  E E E E E E E   E E E E E E E E   E E E E E E E E
|-----------9---9-|-(9)-9-7---7---7-9-|-----------------|---9---------7-9\-||
|---------6---6---|---------9---9-----|---------6---6---|-6---6-7-9-9------||
|-7-7-7-----------|-------------------|-7-7-7-7---7---7-|------------------||
|-----------------|-------------------|-----------------|------------------||


  Q  E E E E E E   E E Q  E E E E   Q  E E E E E E   Q  E E  E E E E
|----------------|----------------|----------------|-----------------||
|----------------|----------------|----------------|-----------------||
|----------------|----------------|----------------|-------------5-6-||
|-7--7-7-7-6-5-7-|-7-7-7--7-6-5-6-|-7--7-7-7-6-5-7-|-7--7-7-/7-7-----||


 5th Chorus
  E E E E E E E E   E E E E E E E E   E E E E E E E E    E  E E E E E E  E
|-----------9---9-|-----7---7-8-9---|-----------9---9-|-----9-------7------||
|-------------6---|-7-9---9---------|---------6---6---|-(9)---7-9-9---9\---||
|-7-7-7---7-------|---------------0-|-7-7-7-7---------|------------------0-||
|-----------------|-----------------|-----------------|--------------------||


  Q  Q  E E E E   Q  Q  E E E E   Q  Q  E E E E   E E E E E E E E
|---------------|---------------|---------------|-----------------||
|---------------|---------------|---------------|-----------------||
|---------------|---------------|---------------|-----4-4-5-5-6-6-||
|-7--7--7-6-5-7-|-7--7--7-6-5-6-|-7--7--7-6-5-6-|-7-7-------------||


 Out-Chorus
  E E E E E E E E   E E E E E E E E   E E E E E E E E   E E E E E E Q
|-----------9---9-|-----7---7---7-9-|-----------9---9-|-------7---7-9\--||
|---------6---6---|-7-9---9---9-----|---------6---6---|-9-7-9---9-------||
|-7-7-7-7---------|-----------------|-7-7-7-7---------|-----------------||
|-----------------|-----------------|-----------------|-----------------||


  Q  Q  E E E E   Q  Q  E E E E   E E Q  E E E E   Q  Q  E E E E
|---------------|---------------|----------------|---------------|
|---------------|---------------|----------------|---------------|
|---------------|---------------|----------------|---------------|
|-7--7--7-6-5-7-|-7--7--7-6-5-6-|-7-7-7--7-6-5-7-|-7--7--7-6-5-6-|


  Q  Q  E E E E   Q  E E E E E E   Q  Q  E E E E   E E E E E E E E
|---------------|----------------|---------------|-----------------|
|---------------|----------------|---------------|-----------------|
|---------------|----------------|---------------|-----------------|
|-7--7--7-6-5-7-|-7--7-7-7-6-5-6-|-7--7--7-6-5-7-|-7-7-7-7-7-6-5-6-|


  E E E E E E E E   +E  E E E E E E E   Q  Q  E E E E   +E  E E E E E E E
|-----------------|-------------------|---------------|-------------------*|
|-----------------|-------------------|---------------|-------------------*|
|-----------------|-------------------|---------------|-------------------*|
|-7-7-7-7-7-6-5-7-|-(7)-7-7-7-7-6-5-7-|-7--7--7-6-5-7-|-(7)-7-7-7-7-6-5-7-*|


Duration Legend
---------------
W - whole; H - half; Q - quarter; E - 8th; S - 16th; T - 32nd; X - 64th; a - acciaccatura
+ - note tied to previous; . - note dotted; .. - note double dotted
Uncapitalized letters represent notes that are staccato (1/2 duration)
Irregular groupings are notated above the duration line
Duration letters will always appear directly above the note/fret number it represents the
duration for.  Duration letters with no fret number below them represent rests.  Multi-
bar rests are notated in the form Wxn, where n is the number of bars to rest for.  Low
melody durations appear below the staff

Tablature Legend
----------------
 h   - hammer-on
 p   - pull-off
 b   - bend
 pb  - pre-bend
 r   - bend release (if no number after the r, then release immediately)
 /\  - slide into or out of (from/to "nowhere")
 s   - legato slide
 S   - shift slide
  - natural harmonic
[n]  - artificial harmonic
n(n) - tapped harmonic
 ~   - vibrato
 tr  - trill
 T   - tap
 TP  - trem. picking
 PM  - palm muting
\n/  - tremolo bar dip; n = amount to dip
 \n  - tremolo bar down
 n/  - tremolo bar up
/n\  - tremolo bar inverted dip
 =   - hold bend; also acts as connecting device for hammers/pulls
   - volume swell (louder/softer)
 x   - on rhythm slash represents muted slash
 o   - on rhythm slash represents single note slash

Misc Legend
-----------
 |  - bar
||  - double bar
||o - repeat start
o|| - repeat end
*|  - double bar (ending)
 :  - bar (freetime)
 $  - Segno
 &  - Coda
Tempo markers -  = BPM(8/16=s8/s16), where s8 = swing 8ths, s16 = swing 16ths


***************************************************************************************
***************************************************************************************





Comments


Popular Costello Elvis tabs & chords
Alison Chords
Harpies Bizarre Chords
Less Than Zero Chords
Pouring Water On A Drowning Man Chords
B Movie Tabs
Ill Wear It Proudly Tabs
Indoor Fireworks Tabs
Pay It Back Tabs
Riot Act Tabs
Shot With His Own Gun Tabs


Song lyrics



↑ Back to top | Tablatures and chords are parodies/interpretations of the original songs. You may use it for private study, scholarship, research or language learning purposes only
© 2014 AZChords.com Contact us | Privacy policy | DMCA | Add/correct tabs | Request tabs | Top 50 tabs