» » »

I'd Do It All Again Tabs (ver.1)

Artists:  A B C D E F G H I J K L M N O P Q R S T U V W X Y Z # 

I'd Do It All Again Tabs (ver.1)

Corinne Bailey Rae
Rating:
0/5 (0 votes)

Hard to play? Try these video lessons and learn fast.
                    _______________________
   / Corinne Bailey Rae   /  This is definitely my favourite song off the album;
  / I'd Do It All Again  /  It is so intimate and soulful! Corinne's band never
 / The Sea              /  sounded so organicly and alive ...and I have never
/______________________/  heard Corinne sing as soulfully as this!  Enjoy :D

 Key:    A major(###)
 Tempo:  68 bpm

In this song there are actually 3 layers of guitar.
And to make things a bit clearer, I've notated them separately:


********************************************************************************
* Gtr 1: Corinne's acoustic steel-stringed guitar (finger picking).
*        This guitar carries the song throughout the quiet passages.


 Verse:
  Bm7                               E9
|---------------------------------|---------------------------------|
|---------7---------------7-------|---------7---------------7-------|
|-----7-----7---------7-----7-----|-----7-----7---------7-----------|
|---7---------7-----7---------7---|---6---------6-----6-------------|
|---------------------------------|-7-------------7-----------------|
|-7-------------7-7---------------|-----------------0---------------|

  A#m7(b5)                          F#7
|---------------------------------|---------------------------------|
|---------5---------------5-------|---------2---------------2-------|
|-----6-----6---------6-----6-----|-----3-----3---------3-----3-----|
|---6---------6-----6---------6---|---2---------2-----2---------2---|
|---------------------------------|---------------------------------|
|-6-------------6-6---------------|-2-------------2-2---------------|

  Bm7                               E9
|---------------------------------|---------------------------------|
|---------7---------------7-------|---------7---------------7-------|
|-----7-----7---------7-----7-----|-----7-----7---------7-----------|
|---7---------7-----7---------7---|---6---------6-----6-------------|
|---------------------------------|-7-------------7-----------------|
|-7-------------7-7---------------|-----------------0---------------|

  A#m7                              F#7
|---------------------------------|---------------------------------|
|---------6---------------6-------|---------2-----------------------|
|-----6-----6---------6-----6-----|-----3-----3---------------------|
|---6---------6-----6---------6---|---2---------2-------------------|
|---------------------------------|---------------------------------|
|-6-------------6-6---------------|-2-------------------------------|




 Verse: Corinne's [Gtr 1] is out here.



 Bridge:
Corinne's [Gtr 1] is in again from here and on:

  Bm7                               E9
|---------------------------------|---------------------------------||
|---------7---------------7-------|---------7-----------------------||
|-----7-----7---------7-----7-----|-----7-----7---------------------||
|---7---------7-----7---------7---|---6---------6-------------------||
|---------------------------------|-7-------------------------------||
|-7-------------7-7---------------|---------------------------------||

(Gently strum the chords.)
    Dmaj7                             E/D                              4x
||--5---5---5---5---5---5---5---5---|-0---0---0---0---0---0---0---0----||
||o-7---7---7---7---7---7---7---7---|-5---5---5---5---5---5---5---5---o||
||--6---6---6---6---6---6---6---6---|-4---4---4---4---4---4---4---4----||
||--7---7---7---7---7---7---7---7---|-6---6---6---6---6---6---6---6----||
||o-5---5---5---5---5---5---5---5---|-5---5---5---5---5---5---5---5---o||
||----------------------------------|----------------------------------||



 Chorus:
(Here's a more powerful strum. Continue the strumming pattern in the other bars.)
  Bm7                                 E9   A#m7(b5)  F#7
  +       +       +       +
|---------------------------------|-------|-------|---0---|
|-7-------7-----7-7-7-7---7---7-7-|---7---|---5---|---2---|
|-7-------7-----7-7-7-7---7---7-7-|---7---|---6---|---3---|
|-7-------7-----7-7-7-7---7---7-7-|---6---|---6---|---2---|
|-x-------------------------------|---7---|---x---|---x---|
|-7-------7-----7-7-7-7---7---7-7-|---0---|---6---|---2---|
  v       v     ^ v ^ v   v   v ^


   Bm7      E9     A#m7   F#7
|-------|-------|-------|-0-------0-----------------------|
|---7---|---7---|---6---|-2-------2-------3-------2-------|
|---7---|---7---|---6---|-3-------3-------3-------3-------|
|---7---|---6---|---6---|-2-------2-------2-------2-------|
|---x---|---7---|---x---|-x-------x-------x-------x-------|
|---7---|---0---|---6---|-2-------2-------2-------2-------|



 Bridge: similar to previous



 Outro:
  Bm7                               E9
|---------------------------------|---------------------------------|
|---------7---------------7-------|---------7---------------7-------|
|-----7-----7---------7-----7-----|-----7-----7---------7-----------|
|---7---------7-----7---------7---|---6---------6-----6-------------|
|---------------------------------|-7-------------7-----------------|
|-7-------------7-7---------------|-----------------0---------------|

                                  [ritardendo...]
  A#m7(b5)                          F#7             F#7(#5) F#7       Bm7
|---------------------------------|---------------------------------|----------:
|---------5---------------5-------|---------2-------3-------2-------|-7^-------:
|-----6-----6---------6-----6-----|-----3-----3-------3---------3---|-7^-------:
|---6---------6-----6---------6---|---2---------2-------2-----------|-7^-------:
|---------------------------------|---------------------------------|----------:
|-6-------------6-6---------------|-2---------------2-------2-------|-7^-------:




********************************************************************************
* Gtr 2: This is a clean electric guitar panned in the right side.
*        This is crucial for the dreamy sound in the bridge-parts.


 Verse: out


 Verse:
  Bm9                               E13
|---9-----9---------9-----9----12-|----------9-----9-----9----9-----|
|----10----10--10----10----10-----|---10------10----10----10----9---|
|------11----11--------11----11---|-------11----11----11----11----9-|
|---------------------------------|---------------------------------|
|---------------------------------|---------------------------------|
|---------------------------------|---------------------------------|

  A#m7(b5)                          F#7
|(9)------------------12\---9\----|-6-------6-------7-------9-------|
|(9)------------------------------|---------------------------------|
|(9)------------------13\---9\----|-6-------6-------7-------9-------|
|---------------------------------|---------------------------------|
|---------------------------------|---------------------------------|
|---------------------------------|---------------------------------|

  Bm7                               E9
|--14----14----14--14----14----14-|----14----14----14----14----14---|
|----15----------15--15-----------|15----15----15----15----15-------|
|------16--------------16---------|--16----16----16----16----16-----|
|---------------------------------|---------------------------------|
|---------------------------------|---------------------------------|
|---------------------------------|---------------------------------|

  A#m7                              F#7(b9)
|-----------13-13-13\---9\----6\--|----------------12^------6^h9p6--|
|---------------------------------|----------------14^------8^------|
|-----------13-13-13\--10\----6\--|----------------15^------9^------|
|---------------------------------|----------------14^--------------|
|---------------------------------|---------------------------------|
|---------------------------------|---------------------------------|



 Bridge:
  Bm7                               E9
|---------------------------------|---------------------------------||
|---------------------------------|---------------------------------||
|---------------------------------|---------------------------------||
|---------------------------------|---------------------------------||
|---------------------------------|---------------------------------||
|---------------------------------|---------------------------------||

  Dmaj9                             E(9,11)/D
|------0-------0---------0------9-|-----12----12----12----12----7---|
|---10--10--10--10----10------10--|---10----10----10----10--------9-|
|-11------11------11------11------|-11----11----11----11----11------|
|---------------------------------|---------------------------------|
|---------------------------------|---------------------------------|
|---------------------------------|---------------------------------|

  Dmaj9                             E(9,11)/D
|-----0-------0-------0-------0---|-----12--------------------7-----|
|--10--10--10--10--10--10--10--10-|---10-----9-----9------------9---|
|11------11------11------11-------|-11-----------11--------11----11-|
|---------------------------------|---------------------------------|
|---------------------------------|---------------------------------|
|---------------------------------|---------------------------------|

  Dmaj9                             E(9,11)/D
|-----0-----------0-----0-----0---|-----12----12----12----12------9-|
|--------10----10----10----10-----|---10----10----10----10------10--|
|-11---------11----11----11-------|-11----11----11----11----11------|
|---------------------------------|---------------------------------|
|---------------------------------|---------------------------------|
|---------------------------------|---------------------------------|

  Dmaj9                             E(9,11)/D
|------0-----0-----0-----0-----12-|-----12----12----12----12--------|
|---10----10----10----10-----10---|---10----10----10----10----------|
|-11----11----11----11----11------|-11----11----11----11------------|
|---------------------------------|---------------------------------|
|---------------------------------|---------------------------------|
|---------------------------------|---------------------------------|



 Chorus:
  Bm7               Bm9             E9
|-7-------7-----7-x-9--9---9--9--9|-7-------7-----7-x-7-7-----7-7-7-|
|-7-------7-----7-x10-10--10-10-10|-7-------7-----7-x-7-7-----7-7-7-|
|-7-------7-----7-x11-11--11-11-11|-7-------7-----7-x-7-7-----7-7-7-|
|-7-------7-----7-x12-12--12-12-12|-6-------6-----6-x-6-6-----6-6-6-|
|-9-------9-----9-x-9--9---9--9--9|-7-------7-----7-x-7-7-----7-7-7-|
|-7-------7-----7-x---------------|-----------------x---------------|

  A#m7(b5)                          F#7
|-----------------x---------------|-----------------x---------------|
|-5-------5-----5-x-5-5-----5-5-5-|-2-------2-----2-x-2-2-----2-2-2-|
|-6-------6-----6-x-6-6-----6-6-6-|-3-------3-----3-x-3-3-----3-3-3-|
|-6-------6-----6-x-6-6-----6-6-6-|-2-------2-----2-x-2-2-----2-2-2-|
|-----------------x---------------|-4-------4-----4-x-4-4-----4-4-4-|
|-6-------6-----6-x-6-6-----6-6-6-|-2-------2-----2-x-2-2-----2-2-2-|

  Bm7               Bm9             E9
|-7-------7-----7-x-9--9---9--9--9|-7-------7-----7-x-7-7-----7-7-7-|
|-7-------7-----7-x10-10--10-10-10|-7-------7-----7-x-7-7-----7-7-7-|
|-7-------7-----7-x11-11--11-11-11|-7-------7-----7-x-7-7-----7-7-7-|
|-7-------7-----7-x12-12--12-12-12|-6-------6-----6-x-6-6-----6-6-6-|
|-9-------9-----9-x-9--9---9--9--9|-7-------7-----7-x-7-7-----7-7-7-|
|-7-------7-----7-x---------------|-----------------x---------------|

  A#m7                              F#7
|-6-------6-------6-------6-------|---------------------------------|
|-6-------6-------6-------6-------|-2-------2-----------------------|
|-6-------6-------6-------6-------|-3-------3-------3---------------|
|-6---6---6---6---6---6---6---6---|-2-------2-------2---------------|
|-8---8---8---8---8---8---8---8---|-4-------4-------4---------------|
|-6---6---6---6---6---6---6---6---|-2-------2-------2---------------|



 Bridge:
  Bm7                               E9
|---------------------------------|---------------------------------||
|---------------------------------|---------------------------------||
|---------------------------------|---------------------------------||
|---------------------------------|---------------------------------||
|---------------------------------|---------------------------------||
|---------------------------------|---------------------------------||

  Dmaj9                             E(9,11)/D
|------0-------0--0-----0-----0---|----12----12----12----12---------|
|---10------10-------10----10--10-|--10----10----10----10---------9-|
|-11------11-------11----11-------|11----11----11----11----11-9h11--|
|---------------------------------|---------------------------------|
|---------------------------------|---------------------------------|
|---------------------------------|---------------------------------|

  Dmaj9                             E(9,11)/D
|------0-------0----0------0----0-|-----12----12----12----12----12--|
|---10--10--10---10-----10----10--|---10----10----10----10----10----|
|-11------11----------11----11----|-11----11----11----11----11------|
|---------------------------------|---------------------------------|
|---------------------------------|---------------------------------|
|---------------------------------|---------------------------------|

  Dmaj9                             E(9,11)/D
|------0-----0-----0------0-----0-|-----12----12----12----12-----12-|
|---10----10----10----10-----10---|---10----10----10----10----10----|
|-11----11----11----11-----11-----|-11----11----11----11----11------|
|---------------------------------|---------------------------------|
|---------------------------------|---------------------------------|
|---------------------------------|---------------------------------|

  Dmaj9                             E(9,11)/D
|------0-----0-----0-----0----12--|-----12----12----12--------------|
|---10----10----10----10----10----|---10----10----10----------------|
|-11----11----11----11----11------|-11----11----11------------------|
|---------------------------------|---------------------------------|
|---------------------------------|---------------------------------|
|---------------------------------|---------------------------------|


  Outro:
  Bm7                               E9
|---------------------------------|---------------------------------|
|---------------------------------|---------------------------------|
|---------------------------------|---------------------------------|
|---------------------------------|---------------------------------|
|---------------------------------|---------------------------------|
|---------------------------------|---------------------------------|

  A#m7(b5)                          F#7             F#7(#5) F#7       Bm7
|---------------------------------|---------------------------------|-7^-------:
|---------------------------------|---------------------------------|-7^-------:
|---------------------------------|---------------------------------|-7^-------:
|---------------------------------|---------------------------------|-7^-------:
|---------------------------------|---------------------------------|-9^-------:
|---------------------------------|---------------------------------|-7^-------:




********************************************************************************
* Gtr 3: This clean electric guitar is panned in the left side.
*        This just plays two fills in the bridges and one in the outro.


 Bridge 1:
(These are the first 4 bars.)
  Dmaj9                             E(9,11)/D
|---------------------0-----------|-----0---------------------------|
|-----------------7---------------|---5---------------9-------------|
|-------------------9-------------|---------------------------------|
|---------------------------------|-6--------------/9---------------|
|---------------------------------|---------------------------------|
|---------------------------------|---------------------------------|

  Dmaj9                             E(9,11)/D
|-------------------------0-------|-----0---------------7-----------|
|---7---7-------------------7-----|---5---------------9-------------|
|-----6---------------------------|---------------------------------|
|-----------------------------7---|-6--------------/9---------------|
|---------------------------------|---------------------------------|
|---------------------------------|---------------------------------|


 Bridge 2:
(These are the last 4 bars.)
  Dmaj13                            E(9,11)/D
|-----7------7---7---6/7----------|------10/12-12---12h14p12-7h9p7-5h7p5-------|
|---7----------7------------------|--------------------------------------5h7p5-|
|-6----------------6-6/7-9/11-9\6-|-9/11-11/13-13------------------------------|
|---------------------------------|--------------------------------------------|
|---------------------------------|--------------------------------------------|
|---------------------------------|--------------------------------------------|

  Dmaj9                             E(9,11)/D
|---------------------------------|---------------------------------|
|---------------------------------|---------------------------------|
|-4h6p4--2h4p2--------------------|---------------------------------|
|---------------2h4p2-------------|---------------------------------|
|---------------------5-4-2-------|---------------------------------|
|---------------------------------|---------------------------------|


 Outro:
(This is just the first bar.)
  Bm7            Bm11
|----------------------14---------|
|----------------14^--------------|
|----------------14^------(with---|
|----------------14^-16----delay)-|
|----------------14^--------------|
|---------------------------------|




 LYRICS
**********
Oh, you're searching for something I know
won't make you happy,
Oh, you're thirsting for something I know
won't make you happy,
Oh, you did it all again,
You broke another skein,
It's hard to believe this time,
It's hard to believe that my heart,
My heart's an open door,
You got all you came for,
So be real

Someone to love is bigger than your pride's worth
It's bigger than the pain you got, for all it hurts
It outruns all of the sadness
It's terrifying light to the darkness

And I'd do it all again
I'd do it all again
I'd do it all again
I'd do it all again

You try sometimes but it won't stop
You got my heart and my head's lost, oh 
I've been burning down these candles for love,
For love
So be real

Someone to love is bigger than your pride.

Oh,
You're searching for something I know won't
make you happy


+--------------------------------------------------------------------------+
Jon Sebastian Frederiksen – 23rd /July /10
            
Hard to play? Try these video lessons and learn fast. | Correct




comments powered by Disqus
↑ Back to top | Tablatures and chords are parodies/interpretations of the original songs. You may use it for private study, scholarship, research or language learning purposes only