» » »

Cooper Temple Clause, Who Needs Enemies? Bass tabs (ver.1)

Artists:  A B C D E F G H I J K L M N O P Q R S T U V W X Y Z # 

Who Needs Enemies? Bass tabs (ver.1)

Cooper Temple Clause Tabs
 Rating:
4/5 (4 votes)
Who Needs Enemies? lessons Tabs too difficult? Try these video lessons and learn fast
1
                Artist------The cooper temple clause
Song-------Who needs enemies


This is a hard song to write and I’m sure a lot of it is wrong. The thing to do is to play it the way you here it [the timing] slide up to the 15th fret and go down to the d string [on the verse] The key to making this tab work is to improvise, man.

Verse [my o my I’m seeing] etc…
G1/15------15/10------------------------
D----------------------7/1-----------------
A-------------------------------------
E-------------------------------------

G1/5/7/12/15---15/10----------------------x---x---x---[only x on the first time this is played]
D------------------------------7/1-----------
A----------------------------------------------------
E----------------------------------------------------

G1/15----15/10----------------------
D---------------------7/1--------------
A--------------------------------------
E-------------------------------------

G1/15/12-----10/12/10---------------------- sometimes improve on this line
D--------------------------------------------
A----------------------------------------------
E------------------------------------------------

Play all this bass line 4 times through verse

Play this on [a killer key change]

G---------------------------------------
D--------------------------------------
A-----------------------------------------
G—5--------7-----------------------[then move you’re left and right hand fast]
            
Submit corrections

comments powered by Disqus
↑ Back to top | Cooper Temple Clause Bass for Who Needs Enemies?. Lyrics for acoustic guitar and electric guitar. 1 Tablatures and chords are parodies/interpretations of the original songs. You may use it for private study, scholarship, research or language learning purposes only