» » »

Cooper Temple Clause, Who Needs Enemies? Tabs (ver.1)

Artists:  A B C D E F G H I J K L M N O P Q R S T U V W X Y Z # 

Who Needs Enemies? Tabs (ver.1)

Cooper Temple Clause Tabs
 Rating:
4/5 (4 votes)
Who Needs Enemies? lessons Tabs too difficult? Try these video lessons and learn fast
1
                WHO NEES ENEMIES BY COOPER TEMPLE CLAUSE

CAPO ON FIRST FRET

Intro chords

Bbm   Ebsus2/G   Bbm7/Db   C7   B13



A                      C
A killer key change    is all you'll ever need


Chorus

Bbm   C/Bb   Cb/Bb   Bbm   C/Bb   



Cb/Bb
Now I'm on your side   

Bbm
All these animals  

C/Bb
that you call friends

Cb/Bb                    Bbm
Now they're on their     knees




Solo

E----------------------------0-0-5-5-----3-0----
B---10-10-10-108-8-8-8-85--5-5-5-5-3-3-3-0----
G----9--9--9------------------------------------X2
D-----------------------------------------------
A-----------------------------------------------
E-----------------------------------------------


E--0-0-0-0--0-0---0---0---0-0-0--0--------------
B--1-1-3-3--5-5---3---1---8-8-10-10-------------
G-----------------------------------------------
D-----------------------------------------------
A-----------------------------------------------
E-----------------------------------------------



C/Bb
You played the fool

Gb5       Am
So damn   easy to
            
Submit corrections

comments powered by Disqus
↑ Back to top | Cooper Temple Clause Tabs for Who Needs Enemies?. Lyrics for acoustic guitar and electric guitar. 1 Tablatures and chords are parodies/interpretations of the original songs. You may use it for private study, scholarship, research or language learning purposes only