» » »

Cooper Temple Clause, Let's Kill Music Bass tabs (ver.1)

Artists:  A B C D E F G H I J K L M N O P Q R S T U V W X Y Z # 

Let's Kill Music Bass tabs (ver.1)

Cooper Temple Clause Tabs
 Rating:
4/5 (4 votes)
Let's Kill Music lessons Tabs too difficult? Try these video lessons and learn fast
1
                Cooper Temple Clause:
"Let's kill music"

standard tuning (E,A,D,G)


Intro
(2 measures/bars rest)

G---------|--------|--------|-------------|
D---------|--------|--------|-------------|
A---------|--------|-3------|-------0-----|
E-3-------|-3------|--------|-1--3-----3--| x2
(let each note ring)

Main Riff

G---------------------------------|---------------------------------|
D---------------------------------|---------------------------------|
A-------------------------0-0-0-0-|---------------------------------|
E-3-3-3-3-3-3-3-3-3-3-3-3---------|-3-3-3-3-3-3-3-3-3-3-3-3-1-1-1-1-|
                                                                 
G---------------------------------|---------------------------------|
D---------------------------------|---------------------------------|
A-3-3-3-3-3-3-3-3-3-3-3-3-5-5-5-5-|-----------------0-0-0-0---------|
E---------------------------------|-1-1-1-1-3-3-3-3---------3-3-3-1-|
(Play hundreds of times)                                            
                                                                    
Mid section                                                         
                                                                    
G---------------------------------|---------------------------------|
D---------------------------------|---------------------------------|
A-------------------------0-------|---------------------------------|
E-3-------------------------------|-3-----------------------1-------|
                                                                       
G---------------------------------|---------------------------------|
D---------------------------------|---------------------------------|
A-3-----------------------5-------|-----------------0---------------|
E---------------------------------|-1-------3---------------3-------|

(play a few times) then back to main riff

And that's about it! Enjoy

Danny G
            
Submit corrections

comments powered by Disqus
↑ Back to top | Cooper Temple Clause Bass for Let's Kill Music. Lyrics for acoustic guitar and electric guitar. 1 Tablatures and chords are parodies/interpretations of the original songs. You may use it for private study, scholarship, research or language learning purposes only