» » »

Cooper Temple Clause, Let's Kill Music Tabs (ver.1)

Artists:  A B C D E F G H I J K L M N O P Q R S T U V W X Y Z # 

Let's Kill Music Tabs (ver.1)

Cooper Temple Clause Tabs
Rating:
0/5 (0 votes)
Let's Kill Music lessons Tabs too difficult? Try these video lessons and learn fast
                Lets Kill Music

(Only the lead guitar sections have the right amount of times you Pick/Strum)

Guitar Intro:

e ------------------------------------------
B ------------------------------------------
G -7-10-9-10-12--14B--12-14-16-17-19--------
D ------------------------------------------
A -5--8-7--8-10-------10-12-14-15-17--------
D -------------------------------------17/5-

Main Riff:

e ---------------------
B ---------------------
G ---------------------
D -5-7-5-3-10-12-3-5-7-
A -5-7-5-3-10-12-3-5-7-
D -5-7-5-3-10-12-3-5-7-

Interval:

Starts with one Main Riff, then he plays:

e ---------------------------------
B ---------------------------------
G ---------------------------------
D -5-7-9-10-9-7-5-3-0-3-10-3-5-7-
A -5-7-9-10-9-7-5-3-0-3-10-3-5-7-
D -5-7-9-10-9-7-5-3-0-3-10-3-5-7-

Then:

e ------------------------------
B ------------------------------
G -4-9-7-7-10-9-9-7-5-10-12-14B-
D ------------------------------
A ------------------------------
D ------------------------------

Then:

e -----------------------7-7-8-8-8-10-12-12-H13-13-15----
B --------------8-8-8-10---------------------------------
G -7-10-9-10-10------------------------------------------
D -------------------------------------------------------
A -------------------------------------------------------
D ----------------------------------------------------/5-

After this play the main riff once and then again once the rest of the band
have kicked in, eventually it changes to this next riff (similar to intro):

e -----------------------------------------
B -----------------------------------------
G -7-10-9-10-12-14-16-17-19-21-22-24-------
D -----------------------------------------
A -5--8-7--8-10-12-14-15-17-19-20-22-------
D ------------------------------------22/5-
            
Submit corrections

comments powered by Disqus
↑ Back to top | Cooper Temple Clause Tabs for Let's Kill Music. Lyrics for acoustic guitar and electric guitar. Tablatures and chords are parodies/interpretations of the original songs. You may use it for private study, scholarship, research or language learning purposes only