» » »

Been Training Dogs Tabs (ver.1)

Artists:  A B C D E F G H I J K L M N O P Q R S T U V W X Y Z # 

Been Training Dogs Tabs (ver.1)

Cooper Temple Clause
Rating:
0/5 (0 votes)

Hard to play? Try these video lessons and learn fast.
                
E---------------------------------------------------------
B---------------------------------------------------------
G---------------------------------------------------------
D---------------------------------------------------------
A---------------------------------------------------------
E--0-0-0-0-0-0-0-0-0-0-0-0-0-0-0-0-0-0-0-0----------------

E---------------------------------------------6------------
B---------------------------------------------6------------
G---------------------------------------------7------------
D----------6---6-6-6-7-7-7----------6---------8------------
A--7-7-5-7---7-7-7-7-8-8-8--7-7-5-7---7-7~----8------------
E--0-----------0------------------------------6------------


E----------------------------------------------------------
B----------------------------------------------------------
G--10--11--10--11--12--13--10-22---------------------------
D----------------------------------------------------------
A--8---9---8---9---10--11--8--20---------------------------
E----------------------------------------------------------

E----------------------------------------------------------
B----------------------------------------------------------
G----------------------------------------------------------
D--5---8-7-10----------------------------------------------
A--5---8-7-10----------------------------------------------
E--3---6-5-8-----------------------------------------------
            
Hard to play? Try these video lessons and learn fast. | Correct




comments powered by Disqus
↑ Back to top | Tablatures and chords are parodies/interpretations of the original songs. You may use it for private study, scholarship, research or language learning purposes only