» » »

Been Training Dogs Bass tabs (ver.2)

Artists:  A B C D E F G H I J K L M N O P Q R S T U V W X Y Z # 

Been Training Dogs Bass tabs (ver.2)

Cooper Temple Clause
Rating:
0/5 (0 votes)

Hard to play? Try these video lessons and learn fast.
                Normal Tuning

GUITAR INTRO

G|-----||--------------------------------|
D|-----||--------------------------------|
A|-19\-||-7-5-7-5-777-888--7-5-7-5-77----|
D|-----||-----------------------------6--|   x 6

G|-----------------------------|
D|-----------------------------|
A|--888888888888-999999999999--|
D|-----------------------------|   x 2

G|----(see as 10's)--------------(see as 11's)--------|
D|----------------------------------------------------|
A|-101010101010101010101010-111111111111111111111111--|
D|----------------------------------------------------|

G|-----------------(see as 20's)-----------|
D|-----------------------------------------|
A|-888888888888-202020202020202020202020\--|
D|-----------------------------------------|

G|---------------------------------|
D|---------------------------------|
A|--7-5-7-5-777-888--7-5-7-5-77----|
D|------------------------------6--|   x 6

G|-----------------------------|
D|-----------------------------|
A|--888888888888-999999999999--|
D|-----------------------------|   x 2

G|----(see as 10's)--------------(see as 11's)--------|
D|----------------------------------------------------|
A|-101010101010101010101010-111111111111111111111111--|
D|----------------------------------------------------|

G|-----------------(see as 20's)-----------|
D|-----------------------------------------|
A|-888888888888-202020202020202020202020\--|
D|-----------------------------------------|

G|---------------------------------|
D|---------------------------------|
A|--7-5-7-5-777-888--7-5-7-5-77----|
D|------------------------------6--|   x 2

G|---(see as 11's)----------(11's)-(13's)-(12's)-(15's)--|
D|-------------------------------------------------------|
A|-111111111111111111111111-111111-131313-121212-151515--|
D|-------------------------------------------------------|   x 3

G|--9~--|
D|--9~--|
A|--7~--|
D|--0~--|   x 4

GUITAR ONLY

G|---------------------------------|
D|---------------------------------|
A|--7-5-7-5-777-888--7-5-7-5-77----|
D|------------------------------6--|   x 7
            
Hard to play? Try these video lessons and learn fast. | Correct




comments powered by Disqus
↑ Back to top | Tablatures and chords are parodies/interpretations of the original songs. You may use it for private study, scholarship, research or language learning purposes only