» » »

Wind Up Toy Tabs (ver.1)

Artists:  A B C D E F G H I J K L M N O P Q R S T U V W X Y Z # 

Wind Up Toy Tabs (ver.1)

Cooper Alice
Rating:
0/5 (0 votes)

Hard to play? Try these video lessons and learn fast.
                PROPS GO TO: Tuomo Pirinne

Wind-up toy from Hey stoopid 1991
~=vibrato
\=slide down
b= bend
rb=realise bend
h=hammer on
p=pull off

intro
|-------------------------------------------------------------------------------------|
|-14-15-14--12--10-12-12-12-12---14-15-14--12--10--15-15-15-14-15-14--12--------------|
|-14-14-14--11---9-11-11-11-11---14-14-14--11---9--14-14-14-14-14-14--11--------------|
|-------------------------------------------------------------------------------------|
|-------------------------------------------------------------------------------------|
|-------------------------------------------------------------------------------------|

|-------------------------------------------------------------------------------------|
|-14-15-14--12--10-\--14-15-14--12--10--14--12--\-------------------------------------|
|-14-14-14--11---9-\--14-14-14--11---9--14--11--\--------9----------------------------|
|--------------------------------------------------------9----------------------------|
|--------------------------------------------------------7----------------------------|
|-------------------------------------------------------------------------------------|
guitar two
|-------------------------------------------------------------------------------------|
|-14-15-14--12--10-\--14-15-14--12--10--13b--12~~\------------------------------------|
|-------------------------------------------------------------------------------------|
|-------------------------------------------------------------------------------------|
|-------------------------------------------------------------------------------------|
|-------------------------------------------------------------------------------------|
verse
1.Voices come from down the hall           in my room all painted white
2.all my friends live on the floor         tiny legs and tiny eyes
|------------------------------------------------------------------------------------|
|-----2--3--2------2--3--2------------3-------2--3--2-------2--3--2------------------|
|-4------------2---------------3----------4-------------2----------------------------|
|------------------------------------------------------------------------------------|
|------------------------------------------------------------------------------------|
|------------------------------------------------------------------------------------|
guitar two
|------------------------------------------------------------------------------------|
|------------------------------------------------------------------------------------|
|------------------------------------------------------------------------------------|
|------------------------------------------------------------------------------------|
|------------------------------------------------------------------------------------|
|------------------------------------------------------------------------------------|
                            I have my bat and rubber ball
                            they`re free to crawl under the door
|------------------------------------------------------------------------------------|
|----2--3--2------2--3--2-------2--3--2------2--3--2---------------6---2--3--2-------|
|-4------------4------------4-------------2---------------3---5----------------------|
|------------------------------------------------------------------------------------|
|------------------------------------------------------------------------------------|
|------------------------------------------------------------------------------------|
guitar two
|-7h9h10h-12-10-9-7-5h7-12h10h8-7h5--3-----------------------------------------------|
|------------------------------------------------------------------------------------|
|------------------------------------------------------------------------------------|
|------------------------------------------------------------------------------------|
|------------------------------------------------------------------------------------|
|------------------------------------------------------------------------------------|
 i like to sleep with them at night
and, and someday soon so i will
|------------------------------------------------------------------------------------|
|-----2--3--2--------2--3--2--------2--3--2-------2--3--2----------------------------|
|-4--------------2--------------4--------------4-------------------------------------|
|------------------------------------------------------------------------------------|
|------------------------------------------------------------------------------------|
|------------------------------------------------------------------------------------|
guiter two 
|---------------------------------------------------------------------------------------|
|---------------------------------------------------------------------------------------|
|---------------------------------------------------------------------------------------|
|-----------------------------------------------------------7p--9b----------------------|
|--------------------------------------5p-x-x-5p-7b-5p-x-x------------------------------|
|---------------------------------------------------------------------------------------|
pre chorus
but now i`m all smiles                  the good litle shots must be winning
|---------------------------------------------------------------------------------------|
|---------------------------------------------------------------------------------------|
|---------------------------------------------------------------------------------------|
|----------------------------5p---------------------------------------------------------|
|---2---3----2---------------------------------2----3----2-----------------7p-----------|
|-5----------------5p-x-x-5p-----5p-x-x-5p---5-----------------5-5p-x-x-5p----5p-x------|
yes they crank my dial               my motor is stalled but my wheels are still spinning
|---------------------------------------------------------------------------------------|
|---------------------------------------------------------------------------------------|
|---------------------------------------------------------------------------------------|
|--------------------------------------------------------------7-7-7-7------------------|
|----2----3---2----------------7p--------------2-----3p-3p-3p--5-5-5-5------------------|
|-5-----------------5p-x-x-5p-----5p-x----5---------------------------------------------|
Chorus
daddy won`t discuss me what a state i must be mommy couldn`t stand living  a wind up toy
|---------------------------------------------------------------------------------------|
|-14-15-14--12--10--12-14-15-14--12--10--15-15-14-15-14-12------10-14-15-14-12-10-14-12-|
|-14-14-14--11---9--11-14-14-14--11---9--14-14-14-14-14-11-------9-14-14-14-11--9-14-11-|
|---------------------------------------------------------------------------------------|
|---------------------------------------------------------------------------------------|
|---------------------------------------------------------------------------------------|
guitar two
|--------------------------------------------------------------------------------------|
|--------------------------------------------------------------------------------------|
|-11-----------7--------11---------------12-12-11------------7------11-----9-9-9-9-9---|
|-11-----------7--------11---------------12-12-11------------7------11-----9-9-9-9-7---|
|-9------------5--------9----------------10-10-9-------------5------9------7-7-7-7-7---|
|--------------------------------------------------------------------------------------|
guitar tree
|-18~~--------------12~~-14~~------------10~~-5~~-----------------5~~----------7~~-----|
|--------------------------------------------------------------------------------------|
|--------------------------------------------------------------------------------------|
|--------------------------------------------------------------------------------------|
|--------------------------------------------------------------------------------------|
|--------------------------------------------------------------------------------------|
            
Hard to play? Try these video lessons and learn fast. | Correct




comments powered by Disqus
↑ Back to top | Tablatures and chords are parodies/interpretations of the original songs. You may use it for private study, scholarship, research or language learning purposes only