» » »

Cooper Alice, Poison Tabs (ver.1)

Artists:  A B C D E F G H I J K L M N O P Q R S T U V W X Y Z # 

Poison Tabs (ver.1)

Cooper Alice Tabs
 Rating:
4/5 (4 votes)
Poison lessons Tabs too difficult? Try these video lessons and learn fast
                part 1                                  part 2

:----------------------------------------::--------------------------------
:----------------------------------------::--------------------------------
:-----------9-----7---------5------5-----::-----------9---7---------5-----5
:7--7-7-----------------4H5----4H5-------::-7--7-7--------------4h5---4h5--
:5--5----5-----5-----5--------------7--5-::-5--5----5---5----5-------------
:----------------------------------------::--------------------------------



                 part 3

:------------------------------------------------------:
:------------------------------------------------------:
:------------------------------------------------------:
:------------------------------------------------------:
:-*-*-*----Slide-pick--------12



------------------------------------------10--------------------------------
--------------------------------------13b----13--10--------13---------------
---------------->9--7-------5-------------------------11h12-----11br--------
-------5--5------------4h5---------------------------------------------12---
-3b-----3--3------------------5>7--5----------------------------------------





-------------------------------------15-------15--17---20b------------------
-------------15-17-18-------15-17-18-------18-------------------------------
---------17-----------------------------------------------------------------
--10------------------------------------------------------------------------



INDEX FOR NOTATIONS:



  <  =  SLIDE WITHOUT FRETTING THE NOTE

3b    =  BEND THE NOTE DOWN A HALF STEP

11br  =  FRET THE NOTE. BEND IT A HALF STEP. THEN RELEASE IT.

20b   =  BEND THE NOTE A WHOLE STEP.
            
Submit corrections

comments powered by Disqus
↑ Back to top | Cooper Alice Tabs for Poison. Lyrics for acoustic guitar and electric guitar. Tablatures and chords are parodies/interpretations of the original songs. You may use it for private study, scholarship, research or language learning purposes only